Muse - Interlude Chords & Tabs

 

Interlude Chords & Tabs

Muse Chords & Tabs

Version: 1 Type: Tab 0 ratings
1 star 2 stars 3 stars 4 stars 5 stars
comments

Interlude Tab

Artist: Muse
Song: Interlude (COMPLETE)
Album: Absolution (2003)
Tabbed By - Alex Parker


Bpm - 60


Tremolo Picking On All Notes Throughout
[ Tab from: http://www.guitartabs.cc/tabs/m/muse/interlude_tab.html ]
                                       *** With Whammy Pedal or Bar
e|-----|--------|---------|------|-----------|
B|-----|--------|---------|------|-----------|
G|-----|--------|---------|------|-----------|
D|-7---|-7-6-9--|-10--9-7-|-7----|-7-7(-12)7-|
A|-----|--------|---------|------|-----------|
E|-----|--------|---------|------|-----------|
 |                                           |
e|-----|--------|---------|------|-----------|
B|-----|--------|---------|------|-----------|
G|-----|--------|---------|------|-----------|
D|-----|--------|---------|------|-----------|
A|-----|--------|---------|------|-----------|
E|--1--|-0------|-5-------|-1----|-10--------|

                                * Echo repeats
e|-------|--------|--------|-------------|
B|-------|--------|--------|-------------|
G|-------|--------|--------|-------------|
D|-7--6--|-7------|-7------|-7-(7)(7)(7)-|
A|-------|--------|--------|-------------|
E|-------|--------|--------|-------------|
 |
e|-------|--------|--------|-------------|
B|-------|--------|--------|-------------|
G|-------|--------|--------|-------------|
D|-------|--------|--------|-------------|
A|-------|--------|--------|-------------|
E|-0-----|-5--4h5-|-5-4h5--|-5-----------|
Comments