Muse - In Your World Chords & Tabs

 

In Your World Chords & Tabs

Muse Chords & Tabs

Version: 6 Type: Tab 0 ratings
1 star 2 stars 3 stars 4 stars 5 stars
comments

In Your World Tab

Artist: Muse
Song name:In your World

Intro :(Piano bit)

Guitar Intro :

e-------------------      -------------------  
B-------------------      -------------------
G----7-------------- x 3  ------------------- (Play whole intro twice) 
D--7---10-9-7-6-7-9-      -7-6-7-9-10-12-9-7- 
A-------------------      -------------------
E-------------------      -------------------

Verse:(Bass)

Pre-chorus:

e------------------|
B------------------|
G--5--7--9--10--9--|
D--5--7--9--10--9--|
A--3--5--7---8--7--|
E------------------|
[ Tab from: http://www.guitartabs.cc/tabs/m/muse/in_your_world_tab_ver_6.html ]
Chorus :
e---------------------------------------------------------------------------
B---------------------------------------------------------------------------
G---10-10-10-------------10-10-10-------------9-9-9----------9-9-9----------  x 3
D---10-10-10-10--10--10--10-10-10-10--10--10--9-9-9-7--7--7--9-9-9-7--7--7--
A---8--8--8--10--10--10--8--8--8--10--10--10--7-7-7-7--7--7--7-7-7-7--7--7--
E-------------8---8---8-----------8---8---8---------5--5--5--------5--5--5--


Outro:

e-------------------
B-------------------
G----7-------------- x 3
D--7---10-9-7-6-7-9-
A-------------------
E-------------------

e-----------------------------------------------------------------------
B-----------------------------------------------------------------------
G------------7------9-10-9-10-12-10-9-10-9------------------------------
D-7-6-7-9-10---10-9------------------------12-10-9-10-12-10-9-7(hold)---
A-----------------------------------------------------------------------
E-----------------------------------------------------------------------
Comments