Muse - In Your World Chords & Tabs

 

In Your World Chords & Tabs

Muse Chords & Tabs

Version: 5 Type: Tab 0 ratings
1 star 2 stars 3 stars 4 stars 5 stars
comments

In Your World Tab

By Andrew Halstead
[ Tab from: http://www.guitartabs.cc/tabs/m/muse/in_your_world_tab_ver_5.html ]
E---------------------------------------------
B---------------------------------------------
G--------9---7--------------------------------
D----7-----------10---9---7---9---10----------
A---------------------------------------------
E---------------------------------------------(x3)

E---------------------------------------------
B---------------------------------------------
G-------------------------7-------------------
D----7---6---7---9---10-------10---9----------
A---------------------------------------------
E---------------------------------------------
Comments