Muse - In Your World Chords & Tabs

 

In Your World Chords & Tabs

Muse Chords & Tabs

Version: 3 Type: Tab 0 ratings
1 star 2 stars 3 stars 4 stars 5 stars
comments

In Your World Tab

                     In Your World by Muse
I tabbed this having heard it about 5 times without having the song to
work from, so I will probably amend it soon-ish.
But for now...

 Intro e-------------------         e---------------------
       B-------------------this 3   B--------------------- play twice
       G-------------------times    G---------------------
       D---12-10-9---------then     D---------9-10-12-10-9 
       A-12--------12-11-12         A-12-11-12------------
       E-------------------         E---------------------

Mostly bass through the Verse but I think theres a riff toward the end
[ Tab from: http://www.guitartabs.cc/tabs/m/muse/in_your_world_tab_ver_3.html ]
Chorus e------------------------------
       B------------------------------  (rhythm is easy)
       G-(10)----10----9-----9-----10-
       D-(10)-10-10-10-9--7--9--7--10-
       A-(8)--10--8-10-7--7--7--7---8-
       E-------8-----8----5-----5-----

Solo:
Intro then e-------------------------------------------------
           B-------------------------------------------------
           G---------------------------9-10-9-10-12-10-9-10-9
           D---------9-10-9-10-12-10-12----------------------
           A-12-11-12----------------------------------------
           E-------------------------------------------------

           e---------------------       -
           B----------------------      -
           G---------------------fade   -
           D-12-10-12-10-9-------out    -7
           A---------------------on     -7
           E---------------------       -5
Comments