Muse - In Your World Chords & Tabs

 

In Your World Chords & Tabs

Muse Chords & Tabs

Version: 12 Type: Tab 0 ratings
1 star 2 stars 3 stars 4 stars 5 stars
comments

In Your World Tab

Such a pity that no one's really submitted a completely full tab for this song yet.
Here's an accurate and complete tablature for In Your World made especially for two
guitars.  Most of this song is played with only one guitar, but it never hurts to
have an extra guitar for added oomph.  And full props and kudos to a previous tabber
who tabbed the verse - I take no credit for that.  Just think of this as a final
version incorporating the best elements of previous tabs.



||-------------------|------------------|------------------|----------------------||
||-------------------|------------------|------------------|----------------------||
||-------------------|------------------|------------------|----------------------||
||-------------------|------------------|------------------|----------------------||
||-------------------|------------------|------------------|----------------------||
||--5-10-8-7-5-4-5-7-|-5-10-8-7-5-4-5-7-|-5-10-8-7-5-4-5-7-|-5-4-5-7-8-10-8-7-5~--||
|
||-------------------|------------------|------------------|----------------------||
||-------------------|------------------|------------------|----------------------||
||-------------------|------------------|------------------|----------------------||
||-------------------|------------------|------------------|----------------------||
||-------------------|------------------|------------------|----------------------||
||--5-10-8-7-5-4-5-7-|-5-10-8-7-5-4-5-7-|-5-10-8-7-5-4-5-7-|-5-4-5-7-8-10-8-7-5~--||


||-------------------|------------------|------------------|----------------------||
||-------------------|------------------|------------------|----------------------||
||-------------------|------------------|------------------|----------------------||
||-------------------|------------------|------------------|----------------------||
||-------------------|------------------|------------------|----------------------||
||--5-10-8-7-5-4-5-7-|-5-10-8-7-5-4-5-7-|-5-10-8-7-5-4-5-7-|-5-4-5-7-8-10-8-7-5~--||
|
||------------------------------------------------------------------------------||
||------------------------------------------------------------------------------||
||------------------10-10-10-10-10-10-10-10-7-7-7-7-7-7-7-7-9-9-9-9-9-9-9-9-----||
||--7-7-7-7-7-7-7-7-10-10-10-10-10-10-10-10-7-7-7-7-7-7-7-7-9-9-9-9-9-9-9-9-7~--||
||--7-7-7-7-7-7-7-7--8--8--8--8--8--8--8--8-5-5-5-5-5-5-5-5-7-7-7-7-7-7-7-7-7~--||
||--5-5-5-5-5-5-5-5---------------------------------------------------------5~--||


||-----------------------------------------------------------------||
||-----------------------------------------------------------------||
||-----------------------------------------------------------------||
||--------------------------------------------------6---6---6---6--||
||--8-7-8-7-8-7-8-7-8-7-8-7-8-7-8-7-8-7-8-7-8-7-8-7---7---7---7----||
||-----------------------------------------------------------------||
|
||-----------------------------------------------------------------||
||-----------------------------------------------------------------||
||-----------------------------------------------------------------||
||--------------------------------------------------6---6---6---6--||
||--8-7-8-7-8-7-8-7-8-7-8-7-8-7-8-7-8-7-8-7-8-7-8-7---7---7---7----||
||-----------------------------------------------------------------||

   
||-----------------------------------------------------------------------||
||-----------------------------------------------------------------------||
||--------5-------5-------------------------7-------7-------7------------||
||----7-------7-----------10-------10-------------------6-------6---9----||
||--7---7---7---7---7-8-7----7-8-7----7-8-7---7-8-7---7---7---7---7---7--||
||-----------------------------------------------------------------------||
|
||-----------------------------------------------------------------------||
||-----------------------------------------------------------------------||
||--------5-------5-------------------------7-------7-------7------------||
||----7-------7-----------10-------10-------------------6-------6---9----||
||--7---7---7---7---7-8-7----7-8-7----7-8-7---7-8-7---7---7---7---7---7--||
||-----------------------------------------------------------------------||





||-----------------------------------------------------------------------||
||-----------------------------------------------------------------------||
||----------------------------------2-------2-------1-------------10-10--||
||----------0-----0-2---0-2-3-0-2-3---3-2-3---3-2-3---3-2-3-------10-10--||
||--3-0-2-3---2-3-----3--------------------------------------------8--8--||
||-----------------------------------------------------------------------||
|
||-----------------------------------------------------------------------||
||-----------------------------------------------------------------------||
||--5-5-5-5-7-7-7-7-9-9-9-9-10-10-10-10-9-9-9-9-9-9-9-9-9-9-9-9-9-10-10--||
||--5-5-5-5-7-7-7-7-9-9-9-9-10-10-10-10-9-9-9-9-9-9-9-9-9-9-9-9-9-10-10--||
||--3-3-3-3-5-5-5-5-7-7-7-7--8-8-8-8-7-7-7-7-7-7-7-7-7-7-7-77--8-8--||
||-----------------------------------------------------------------------||


||-------------------------------------------------------------------------||
||-------------------------------------------------------------------------||
||---------------10-10----------------9-9------------9-9------------10-10--||
||--10---10-10---10-10---10---10-10---9-9---7--7-7---9-9---7--7-7---10-10--||
||--10---10-10----8--8---10---10-10---7-7---7--7-7---7-7---7--7-7----8-8--||
||---8----8--8------------8----8--8---------5--5-5---------5--5-5----------||
|										 x3
||-------------------------------------------------------------------------||
||-------------------------------------------------------------------------||
||---------------10-10----------------9-9------------9-9------------10-10--||
||--10---10-10---10-10---10---10-10---9-9---7--7-7---9-9---7--7-7---10-10--||
||--10---10-10----8--8---10---10-10---7-7---7--7-7---7-7---7--7-7----8-8--||
||---8----8--8------------8----8--8---------5--5-5---------5--5-5----------||
[ Tab from: http://www.guitartabs.cc/tabs/m/muse/in_your_world_tab_ver_12.html ]
||-------------------|------------------|------------------|----------------------||
||-------------------|------------------|------------------|----------------------||
||-------------------|------------------|------------------|----------------------||
||-------------------|------------------|------------------|----------------------||
||-------------------|------------------|------------------|----------------------||
||--5-10-8-7-5-4-5-7-|-5-10-8-7-5-4-5-7-|-5-10-8-7-5-4-5-7-|-5-4-5-7-8-10-8-7-5~--||
|
||------------------------------------------------------------------------------||
||------------------------------------------------------------------------------||
||------------------10-10-10-10-10-10-10-10-7-7-7-7-7-7-7-7-9-9-9-9-9-9-9-9-----||
||--7-7-7-7-7-7-7-7-10-10-10-10-10-10-10-10-7-7-7-7-7-7-7-7-9-9-9-9-9-9-9-9-7~--||
||--7-7-7-7-7-7-7-7--8--8--8--8--8--8--8--8-5-5-5-5-5-5-5-5-7-7-7-7-7-7-7-7-7~--||
||--5-5-5-5-5-5-5-5---------------------------------------------------------5~--||

||-----------------------------------------------------------------||
||-----------------------------------------------------------------||
||-----------------------------------------------------------------||
||--------------------------------------------------6---6---6---6--||
||--8-7-8-7-8-7-8-7-8-7-8-7-8-7-8-7-8-7-8-7-8-7-8-7---7---7---7----||
||-----------------------------------------------------------------||
|
||-----------------------------------------------------------------||
||-----------------------------------------------------------------||
||-----------------------------------------------------------------||
||--------------------------------------------------6---6---6---6--||
||--8-7-8-7-8-7-8-7-8-7-8-7-8-7-8-7-8-7-8-7-8-7-8-7---7---7---7----||
||-----------------------------------------------------------------||





||-----------------------------------------------------------------------||
||-----------------------------------------------------------------------||
||--------5-------5-------------------------7-------7-------7------------||
||----7-------7-----------10-------10-------------------6-------6---9----||
||--7---7---7---7---7-8-7----7-8-7----7-8-7---7-8-7---7---7---7---7---7--||
||-----------------------------------------------------------------------||
|
||-----------------------------------------------------------------------||
||-----------------------------------------------------------------------||
||--------5-------5-------------------------7-------7-------7------------||
||----7-------7-----------10-------10-------------------6-------6---9----||
||--7---7---7---7---7-8-7----7-8-7----7-8-7---7-8-7---7---7---7---7---7--||
||-----------------------------------------------------------------------||


||-----------------------------------------------------------------------||
||-----------------------------------------------------------------------||
||----------------------------------2-------2-------1-------------10-10--||
||----------0-----0-2---0-2-3-0-2-3---3-2-3---3-2-3---3-2-3-------10-10--||
||--3-0-2-3---2-3-----3--------------------------------------------8--8--||
||-----------------------------------------------------------------------||
|
||-----------------------------------------------------------------------||
||-----------------------------------------------------------------------||
||--5-5-5-5-7-7-7-7-9-9-9-9-10-10-10-10-9-9-9-9-9-9-9-9-9-9-9-9-9-10-10--||
||--5-5-5-5-7-7-7-7-9-9-9-9-10-10-10-10-9-9-9-9-9-9-9-9-9-9-9-9-9-10-10--||
||--3-3-3-3-5-5-5-5-7-7-7-7--8-8-8-8-7-7-7-7-7-7-7-7-7-7-7-77--8-8--||
||-----------------------------------------------------------------------||


||-------------------------------------------------------------------------||
||-------------------------------------------------------------------------||
||---------------10-10----------------9-9------------9-9------------10-10--||
||--10---10-10---10-10---10---10-10---9-9---7--7-7---9-9---7--7-7---10-10--||
||--10---10-10----8--8---10---10-10---7-7---7--7-7---7-7---7--7-7----8-8--||
||---8----8--8------------8----8--8---------5--5-5---------5--5-5----------||
|										 x3
||-------------------------------------------------------------------------||
||-------------------------------------------------------------------------||
||---------------10-10----------------9-9------------9-9------------10-10--||
||--10---10-10---10-10---10---10-10---9-9---7--7-7---9-9---7--7-7---10-10--||
||--10---10-10----8--8---10---10-10---7-7---7--7-7---7-7---7--7-7----8-8--||
||---8----8--8------------8----8--8---------5--5-5---------5--5-5----------||


||-------------------|------------------|------------------|---------------------||
||-------------------|------------------|------------------|---------------------||
||-------------------|------------------|------------------|---------------------||
||-------------------|------------------|------------------|---------------------||
||-------------------|------------------|------------------|---------------------||
||--5-10-8-7-5-4-5-7-|-5-10-8-7-5-4-5-7-|-5-10-8-7-5-4-5-7-|-5-4-5-7-8-10-8-7-5--||
|
||---------------------------------------------------------------------------||
||---------------------------------------------------------------------------||
||------------------10-10-10-10-10-10-10-10-7-7-7-7-7-7-7-7-9-9-9-9-9-9-9-9--||
||--7-7-7-7-7-7-7-7-10-10-10-10-10-10-10-10-7-7-7-7-7-7-7-7-9-9-9-9-9-9-9-9--||
||--7-7-7-7-7-7-7-7--8--8--8--8--8--8--8--8-5-5-5-5-5-5-5-5-7-7-7-7-7-7-7-7--||
||--5-5-5-5-5-5-5-5----------------------------------------------------------||



||-----------------------------------------------------------------------------------||
||-----------------------------------------------------------------------------------||
||-----------------------------------------------------------------------------------||
||-----------------------------------------------------------------------------------||
||-----------------------------------------------------------------------------------||
||--4-5-7-8-7-8-10-12-10-12-13-12-13-12-13-15-13-12-12-10-12-10-8-10-8-7-8-10-8-7-5~-||
| 
||------------------------------------------------------------------------------||
||------------------------------------------------------------------------------||
||------------------10-10-10-10-10-10-10-10-7-7-7-7-7-7-7-7-9-9-9-9-9-9-9-9-----||
||--7-7-7-7-7-7-7-7-10-10-10-10-10-10-10-10-7-7-7-7-7-7-7-7-9-9-9-9-9-9-9-9-7~--||
||--7-7-7-7-7-7-7-7--8--8--8--8--8--8--8--8-5-5-5-5-5-5-5-5-7-7-7-7-7-7-7-7-7~--||
||--5-5-5-5-5-5-5-5---------------------------------------------------------5~--||



~ Victim De Ennui
Comments