Muse - In Your World Chords & Tabs

 

In Your World Chords & Tabs

Muse Chords & Tabs

Version: 11 Type: Tab 0 ratings
1 star 2 stars 3 stars 4 stars 5 stars
comments

In Your World Tab

there are already some versions of this song tabbed here, but most of them are awefully hard to play ...
why??? do you think matt thought "uuh i'm gonna make this one a real hard one to play even for me!" ...
so here is an "eas'yer to play" tab for us nubs :)

i'll add the finger you need to use above each intro tab
(looks difficult, but its EASY, try it!!)
p = pointer
m = middle
r = ring
s = small (i'm from germany, i hope i got the names right :) )

[ Tab from: http://www.guitartabs.cc/tabs/m/muse/in_your_world_tab_ver_11.html ]
Guitar Intro :
 --s-s-m-p-s-r-s-p--      -s-r-s-p-m-s-m-p-s- 
e-------------------      -------------------  
B-------------------      -------------------
G----7-5-4-------4-- x 3  -------4-5-7-5-4--- (Play whole intro twice) 
D--7-------7-6-7----      -7-6-7-----------7- 
A-------------------      -------------------
E-------------------      -------------------

Verse:(Bass)

Pre-chorus:

e------------------|
B------------------|
G--5--7--9--10--9--|
D--5--7--9--10--9--|
A--3--5--7---8--7--|
E------------------|

Chorus:
e---------|----------------------------------------|--
B-(6)-(6)-|------6-6---------------------------6-6-|--
G-(5)-(5)-|-5-5--5-5--5-5--9-9-------9-9-------5-5-|-- repeat as often  
D-(x)-(x)-|-5-5--x-x--5-5--9-9--7-7--9-9--7-7--x-x-|-- as neccessairy :)
A-(3)-(3)-|-3-3--3-3--3-3--7-7--7-7--7-7--7-7--3-3-|--
E---------|---------------------5-5-------5-5------|--

Improvise the outtro :) (or take a look at the other tabs)
Comments