Muse - In Your World Chords & Tabs

 

In Your World Chords & Tabs

Muse Chords & Tabs

Version: 1 Type: Tab 0 ratings
1 star 2 stars 3 stars 4 stars 5 stars
comments

In Your World Tab

Subject"Muse - In your world"
Artist:Muse
Album: Deadstar
Transcriber: Will Stallion" Turner

This is the way matt bellamy plays it, with his left hand tapping all the notes with a really high gain and compression.Standard tuning EADGBE

|--------------------------------||--------------------------------| 
|--------------------------------||--------------------------------|
|--------------------------------||--------------------------------|
|--------------------------------||--------------------------------|
|----5h0-3h0-2h0-------------2h0-||----5h0-3h0-2h0-------------2h0-|
|-5h0------------5h0-4h0-5h0-----||-5h0------------5h0-4h0-5h0-----|

|--------------------------------||-----------------------------------| 
|--------------------------------||-----------------------------------|
|--------------------------------||----------------------------------2|
|--------------------------------||----------------------------------2|
|----5h0-3h0-2h0-------------2h0-||-------------2h0-3h0-5h0-3h0-2h0--0|
|-5h0------------5h0-4h0-5h0-----||-5h0-4h0-5h0----------------------x|
[ Tab from: http://www.guitartabs.cc/tabs/m/muse/in_your_world_tab.html ]
Through verse: Mute these notes.     Play this through twice

|--------------------------------||--------------------------------|
|--------------------------------||--------------------------------|
|--------------------------------||--------------------------------|
|-----------------10-10-10-10----||-7---7---7---7---9---9---9---9--|
|-7---7---7---7-----8--8--8--8---||---5---5---5---5---7---7---7---7|
|---5---5---5---5----------------||--------------------------------|

Then play these chords through the chorus twice:

|--------------------------------||--------------------------------|
|--------------------------------||--------------------------------|
|----------10-10-------------9-9-||----------9-9---------10-10-10--|
|-10-10-10-10-10---10-10-10--9-9-||---7-7-7--9-9---7-7-7-10-10-10--|
|-10-10-10-8--8----10-10-10--7-7-||---7-7-7--7-7---7-7-7-8--8--8---|
|-8--8--8--------0-8--8--8-------||-0-5-5-5------0-5-5-5-----------|

…Then back to the hand tapping solo

Still working on the outro part as I havent been bothered to transcribe it yet.

Comments or song requests to stallion1984@aol.com
Comments