Muse - In Your World Studio Ver Chords & Tabs

 

In Your World Studio Ver Chords & Tabs

Muse Chords & Tabs

Version: 1 Type: Tab 0 ratings
1 star 2 stars 3 stars 4 stars 5 stars
comments

In Your World Studio Ver Tab

MUSE – “In Your World”

Artist: MUSE
Author: Matthew Bellamy (MUSE)
Song:   In Your World (Studio Version)
Album:  Hullabaloo (Live Version)

Transcribed by: Benjamin Knorr
Country: Germany
e-Mail: Jackie_Chan87@web.de

Size: Weblayout (MICROSOFT WORD)

Tuning: EAEGBe (You have to tune your guitar this way... this looks wrong, but seen on the Hullabaloo DVD, it’s actually  
                played like this... 100%ly !!!)


This is one of the greatest songs of one of the best live bands in the world – MUSE!

I did this tab for the studio version of the song. It’s the one with piano... so it is NOT the version on HULLABALOO!!!

The song is played quite fast, and all notes in the guitar intro (INTRO PART 2), intro to verse and outro are hammered with the left hand.

I think this tab is nearly 100% correct, I saw the other versions, which all were not 100% correct. Especially the GREAT outro wasn’t perfect in the other versions, so I did it by myself – and it’s correct, damn correct!!!

(I haven’t worked out the VERSE & the INTRO PART 1 [Piano 2] yet, but it’ll come...100%ly!)


INTRO PART 1 (Piano 1) (plays the same as the Guitar INTRO)


INTRO PART 1 (Piano 2)


INTRO PART 2 (Guitar) (the last [5] only play the second time)

e|----------------------------------------------------------------------------------------------------
B|----------------------------------------------------------------------------------------------------
G|-----7h0------------------------------7h0------------------------------7h0--------------------------
E|-5h0-----8h0-7h0-5h0-4h0-5h0-7h0--5h0-----8h0-7h0-5h0-4h0-5h0-7h0--5h0-----8h0-7h0-5h0-4h0-5h0-7h0--
A|----------------------------------------------------------------------------------------------------
E|----------------------------------------------------------------------------------------------------

  --------------------------------------|
  --------------------------------------|
  ----------------------7h0-------------|
  --5h0-4h0-5h0-7h0-8h0-----8h0-7h0-[5]-|
  --------------------------------------|
  --------------------------------------|


VERSE


BRIDGE

e|-------------------------|
B|-------------------------|
G|-5--7—-9--10--9----------|
E|-5--7--9--10--9----8---8-|
A|-3--5--7---8--7----8---8-|
E|-------------------8---8-|


CHORUS (the last [0] only play the first & the second time)

e|-----------------------------------------------------------------------------------------|
B|-----------------------------------------------------------------------------------------|
G|-----------------------------------------------------------------------------------------|
E|----------------8--8------------------7--7-----------------7--7----------------8--8--[0]-|
A|-10---10--10----8--8----10---10--10---7--7-----7---7--7----7--7----7---7--7----8--8--[0]-|
E|--8----8---8----8--8-----8----8---8---7--7-----5---5--5----7--7----5---5--5----8--8--[0]-|

[ Tab from: http://www.guitartabs.cc/tabs/m/muse/in_your_world_studio_ver_tab.html ]
INTRO TO VERSE

e|----------------------------------------------------------------------------------------------------
B|----------------------------------------------------------------------------------------------------
G|-----7h0------------------------------7h0------------------------------7h0--------------------------
E|-5h0-----8h0-7h0-5h0-4h0-5h0-7h0--5h0-----8h0-7h0-5h0-4h0-5h0-7h0--5h0-----8h0-7h0-5h0-4h0-5h0-7h0--
A|----------------------------------------------------------------------------------------------------
E|----------------------------------------------------------------------------------------------------

  ------------------------------------|
  ------------------------------------|
  ----------------------7h0-----------|
  --5h0-4h0-5h0-7h0-8h0-----8h0-7h0-5-|
  ------------------------------------|
  ------------------------------------|


OUTRO

e|----------------------------------------------------------------------------------------------------
B|----------------------------------------------------------------------------------------------------
G|-----7h0------------------------------7h0------------------------------7h0--------------------------
E|-5h0-----8h0-7h0-5h0-4h0-5h0-7h0--5h0-----8h0-7h0-5h0-4h0-5h0-7h0--5h0-----8h0-7h0-5h0-4h0-5h0-7h0--
A|----------------------------------------------------------------------------------------------------
E|----------------------------------------------------------------------------------------------------

  -------------------------------------------------------------------------------------------------------------
  -------------------------------------------------------------------------------------------------------------
  ----------------------7h0-------------------------------------------------------9h0-------9h0-10h0-9h0-10h0--
  --5h0-4h0-5h0-7h0-8h0-----8h0-7h0--5h0-4h0-5h0-7h0--8h0-7h0-8h0-10h0--8h0-10h0------10h0---------------------
  -------------------------------------------------------------------------------------------------------------
  -------------------------------------------------------------------------------------------------------------

  ------------------------------------------------------------------------------|
  ------------------------------------------------------------------------------|
  --12h0-10h0-9h0-10h0--9h0-----------------------------------------------------|
  --------------------------10h0-8h0-10h0--8h0-10h-8h0-7h0--8h0-10h0-8h0-7h0--5-|
  ------------------------------------------------------------------------------|
  ------------------------------------------------------------------------------|


Structure:

Intro Part 1 [Piano 1] x2
Intro Part 1 [Piano 2] x1
Intro Part 2 [Guitar]  x2
Verse x1
Bridge x1
Chorus x3
Intro to verse x1
Bridge x1
Chorus x3
Outro x1


NOTE: If anyone wants the correct lyrics of this song, he or she can send  
      me an e-Mail to my address (at the beginning of this tab!).
Comments