Muse - In Your World Outro Chords & Tabs

 

In Your World Outro Chords & Tabs

Muse Chords & Tabs

Version: 1 Type: Tab 0 ratings
1 star 2 stars 3 stars 4 stars 5 stars
comments

In Your World Outro Tab


Song: In Your World (outro)
Band: Muse

Im only doing this coz i know that Matt doesnt keep going up the low
E string i know he plays around with the others, and i think he plays
it also on the G,B,e strings to but i havent worked that out yet.
This is all i have, i changed it from another tab i found on this
site i think, so no credit goes to me.

Standard Tuning: EADGBe
hammer all the notes with left hand

|-----------------------------------------------------------------|
|-----------------------------------------------------------------|
|-----------------------------------------------------------------|
|-----------------------------------------------------------------|
|-------------2p0-3p0-2p0-3p0-5p0-7p0-5p0-7p0-8p0-7p0-8p0-7p0-8p0-|
|-5p0-4p0-5p0-----------------------------------------------------|
[ Tab from: http://www.guitartabs.cc/tabs/m/muse/in_your_world_outro_tab.html ]
|-----------------------------------------------------------------|
|-----------------------------------------------------------------|
|-----------------------------------------------------------------|
|-5p0-------------------------------------------------------------|
|-----8p0-7p0-5p0-7p0-5p0-7p0-5p0-3p0-5p0-3p0-2p0-3p0-5p0-3p0-2p0-|
|-----------------------------------------------------------------|

|-----------------------------------------------------------------|
|-----------------------------------------------------------------|
|--2--------------------------------------------------------------|
|--2--or--7-------------------------------------------------------|
|--0------7-------------------------------------------------------|
|---------5-------------------------------------------------------|

Thats it i think n e corrections or official shit i'd like to see it.
C u all later n e comments and crap like that email my new email
address
spikez401@msn.com

if u see a tab with spikez40@hotmail.com ignore that address.
thanks see u all later
Spikez
Comments