Muse - In Your World Chords & Tabs

 

In Your World Chords & Tabs

Muse Chords & Tabs

Version: 5 Type: Bass Tab 0 ratings
1 star 2 stars 3 stars 4 stars 5 stars
comments

In Your World Bass Tab

Standard Tuning 

I tabbed it so that it's very easy to play. 

Muse - In your World 

Intro 

Part 1: (0:16) 
G:|-------------------------|
D:|----2--3-----0-----2-----|
A:|0------------------------|
E:|-------------------------|

Part 2: (0:25) 
G:|----------------------------------------------------------------|
D:|------------2-2-3-3-3-3-3-3-3-3-0-0-0-0-0-0-0-0-2-2-2-2-2-2-2-2-|
A:|0-0-0-0-0-0-----------------------------------------------------|
E:|----------------------------------------------------------------|
[ Tab from: http://www.guitartabs.cc/tabs/m/muse/in_your_world_btab_ver_5.html ]
Part 3: (0:32) 
G:|------|
D:|------|
A:|0-----|
E:|------|

Part 4: (0:47) 
G:|-------------|
D:|--0-2--3-2---|
A:|4------------|
E:|-------------|

Refrain: (0:55) 
G:|-------------------------------|
D:|--------3-3------------3-3-----|
A:|3-3-3-3--------3-3-3-3---------|
E:|-------------------------------|

G:|-------------------------------|
D:|--------2-2------------2-2-----|
A:|0-0-0-0--------0-0-0-0---------| x3
E:|-------------------------------|

Part 2: (1:18) 

Part 3: (1:26) 

Part 4: (1:41) 

Refrain: (1:49) 

Part 1: (2:11) x 2 

Part 3: (2:27) 

danieljamritsch@gmx.at
Comments