Muse - In Your World Chords & Tabs

 

In Your World Chords & Tabs

Muse Chords & Tabs

Version: 4 Type: Bass Tab 0 ratings
1 star 2 stars 3 stars 4 stars 5 stars
comments

In Your World Bass Tab

The bass part comes in after the small guitar intro.

INTRO/VERSE/OUTRO 

G|---------------------------------------------------------------------
D|----------------------------9-10-0-0-0-0-0-0-5-7---------------------
A|0-0-0-0-0-0-5-7-8-8-8-8-8-8----------------------7-7-7-7-7-7-3-2-----
E|---------------------------------------------------------------------

PRECHORUS
[ Tab from: http://www.guitartabs.cc/tabs/m/muse/in_your_world_btab_ver_4.html ]
G|--------------------------------  This is the 'buildup' if you like...
D|--------0-----0-2---0-2-3-0-2-3-
A|3-0-2-3---2-3-----3-------------
E|--------------------------------

G|2-------2-------1---------------
D|--3-2-3---3-2-3---3-2-3--3--3---  This bit is a little quicker.  
A|--------------------------------  Listen to the song for the exact timing.
E|--------------------------------  

CHORUS

G|-----------------------------------
D|------33------22------22------33--- 
A|-3-3-3---3-3-3---0-0-0---0-0-0-----
E|-----------------------------------

INTRO/VERSE/OUTRO: X3
PRECHORUS: X1
CHORUS: X3
INTRO/VERSE/OUTRO: X3
PRECHORUS: X1
CHORUS: X3

INTRO/VERSE/OUTRO: X2
Comments