Muse - In Your World Chords & Tabs

 

In Your World Chords & Tabs

Muse Chords & Tabs

Version: 1 Type: Bass Tab 0 ratings
1 star 2 stars 3 stars 4 stars 5 stars
comments

In Your World Bass Tab

Hi im Stalefish1 lead guitarist/singer for the amazing band called stalefish. 
Look out for us cause we'll be famous soon. I'm tabbing this out for stalefish's 
bassist (joe).

Do not complain about this tab because there is nothing wrong with it. It deserves 
5 stars definitely.  So rate it perfect!

INTRO/VERSE:

G|----------------------------------------------------------
D|----------------------------9-10-0-0-0-0-0-0-5-7----------
A|0-0-0-0-0-0-5-7-8-8-8-8-8-8----------------------7-7-7-7-7
E|----------------------------------------------------------
[ Tab from: http://www.guitartabs.cc/tabs/m/muse/in_your_world_btab.html ]
The intro is played 3 times but at the end only two times.

PRECHORUS:

G|-------------------------------
D|--------0-0-0-0-2-2-2-2-3-3-3-3   Then straight into the
A|3-3-3-3------------------------   next part of prechorus
E|-------------------------------   (BELOW)

G|2-------2-------1---------------
D|--3-2-3---3-2-3---3-2-3------3-3  This part is slightly
A|--------------------------------  faster. Listen out for
E|--------------------------------  it.

CHORUS:

G|-----------------------------------
D|------33------22------22------22--- This is played 3 times
A|-3-3-3---3-3-3---0-0-0---0-0-0-----
E|-----------------------------------
Comments