Muse - I Want You Now Chords & Tabs

 

I Want You Now Chords & Tabs

Muse Chords & Tabs

Version: 1 Type: Tab 0 ratings
1 star 2 stars 3 stars 4 stars 5 stars
comments

I Want You Now Tab

Muse - I Want You Now
Tabbed By: Myke
EMail: A_Violet_Fluid@hotmail.com

Standard Tuning

Riff 1:

|-----------------------------------------------------------------------------------------|
|----------------------------------3------------------------------------------------------|
|------------------------2-----5-5---5-5\4-4\3-3\2-0-0-2-0-------------0-0-2-0------------|
|------------2-5-2-5-2-5-----------------------------------2-3-2-0-2-----------2-3-2-0-2--|
|------5-2-5---------------5-5---------------------------------------0--------------------|
|--0-0------------------------------------------------------------------------------------| 

|----------------------------------------------------------------------0\17-------|
|----------------------------------3--------------------------------------x-------|
|------------------------2-----5-5---5-5\4-4\3-3\2-0-0-2-0----------------x-xxxx--|
|------------2-5-2-5-2-5-----------------------------------2-3-2-0-2--------xxxx--|
|------5-2-5---------------5-5---------------------------------------0------xxxx--|
|--0-0----------------------------------------------------------------------------| 

Riff 2:

|-------------------------------------------------------------|
|-------------------------------------------------------------|
|-------------------------------------------------------------|
|--6-6-6-7-9/10--------7-9-10-7-------7-9-10--------7-9-10-7--|
|-----------------8-8-8-----------7-7----------0-0------------|
|-------------------------------------------------------------|
[ Tab from: http://www.guitartabs.cc/tabs/m/muse/i_want_you_now_tab.html ]
|-------------------------------------------------|
|-------------------------------------------------|
|-------------------------------------------------|
|--6-6-6-7-9/10--------7-9-10-7-------7-9-10------|
|-----------------8-8-8-----------7-7----------0--|
|-------------------------------------------------|

Verse:

|------------------------------------|
|------------------------------------|
|--9--------9--------10--------12-9--|
|------------------------------------|
|------------------------------------|
|------------------------------------| 

Chorus: 

|--3--------3--------1--------0--|
|--5--------3--------3--------1--|
|--5--------4--------2--------2--|
|--5--------5--------0--------2--|
|--3--------5--------0--------0--|
|--3--------3--------------------|

Solo:

|--------------------------------------------------|
|-------17-17-------18-18-------18-18-17-17--------|
|-13-13-------13-13-------13-13-------------13-13--|
|--------------------------------------------------|
|--------------------------------------------------|
|--------------------------------------------------|

|--------------------------------17-17--------------|
|--------17-17-------18-18-------------------17-17--|
|--14-14-------14-14-------14-14-------14-14--------|
|---------------------------------------------------|
|---------------------------------------------------|
|---------------------------------------------------|

|---------------------------------------------------|
|--------17-17-------18-18-------18-18-17-17--------|
|--13-13-------13-13-------13-13-------------13-13--|
|---------------------------------------------------|
|---------------------------------------------------|
|---------------------------------------------------|

|----------------------------------------------------|
|---------17-17-------18-18-------18-18-17-17--------|
|---14-14-------14-14-------14-14-------------14-14--|
|----------------------------------------------------|
|----------------------------------------------------|
|----------------------------------------------------|

A_Violet_Fluid@hotmail.com
2OO2
Comments