Muse - Hysteria Chords & Tabs

 

Hysteria Chords & Tabs

Muse Chords & Tabs

Version: 8 Type: Tab 0 ratings
1 star 2 stars 3 stars 4 stars 5 stars
comments

Hysteria Tab

   
This first part is played about 16 secs after the bass at the very start.
Play all of it through once (fast with alternate picking) then play the
2nd intro straight after.

1st intro
E----------------------------------------------------------------|
B----------------------------------------------------------------|
G----------------------------------------------------------------|
D-0-0-0-0-0-0-0-0-0-0-0-0-0-0-0-0-1-1-1-1-1-1-1-1-1-1-1-1-1-1-1--|
A----------------------------------------------------------------|
E----------------------------------------------------------------|

E--------------------------------------------------------------------------|
B--------------------------------------------------------------------------|
G--------------------------------------------------------------------------|
D-2-2-2-2-2-2-2-2-2-2-2-2-2-2-2-2-3-3-3-3-3-3-3-3-3-3-3-3-3-3-3-3--/14\----|
A--------------------------------------------------------------------------|
E--------------------------------------------------------------------------|

2nd intro: Play through twice.
E---------------------------------|
B--------------------12h13p12-10--|
G---------------------------------|
D--14-14-14-14-14-14--------------|
A--12-12-12-12-12-12--------------|
E---------------------------------|

E--------------------------------|
B-------------------12h13p12-10--|
G--------------------------------|
D-12-12-12-12-12-12--------------|
A-10-10-10-10-10-10--------------|
E--------------------------------|

E--------------------------------|
B-------------------12h13p12-10--|
G--------------------------------|
D-10-10-10-10-10-10--------------|
A-8-8-8-8-8-8--------------------|
E--------------------------------|

E---------------------------------|
B--------------12h13p12h13p12-----|
G---------------------------------|
D-9-9-9-9-9-9---------------------|
A-7-7-7-7-7-7---------------------|
E---------------------------------|

There are no tabs in the verse so lets go straight to the chorus!
Chorus:
                           C
Cause I want it now
            G
I want it now
 Dm
Give me your heart
          Am
And your soul

Note: These chords are the same in every chorus.
The only difference is that the words may be different.
I have given you some lyrics for a little help: )

After you have played the 1st chorus, play this tab.
E---------------------------------------|
B---------------------------------------|
G---------------------------------------|
D---------------------------------------|
A-----------------10-------10-10-11-12--|
E-0-0-10-0-10-12-0--0-12-0--------------|

Now back to the 2nd intro. This time play it through once.
E------------------------------------|
B-----------------------12h13p12-10--|
G------------------------------------|
D--14--14--14-14-14-14---------------|
A--12---12-12-12-12-12---------------|
E------------------------------------|

E---------------------------------|
B--------------------12h13p12-10--|
G---------------------------------|
D-12-12-12-12-12-12---------------|
A-10-10-10-10-10-10---------------|
E---------------------------------|

E---------------------------------|
B--------------------12h13p12-10--|
G---------------------------------|
D-10-10-10-10-10-10---------------|
A-8-8-8-8-8-8---------------------|
E---------------------------------|

E-------------------------------|
B---------------12h13p12h13p12--|
G-------------------------------|
D-9-9-9-9-9-9-------------------|
A-7-7-7-7-7-7-------------------|
E-------------------------------|

There are no tabs in the verse so lets carry on with the rest of the song!
After the verse play the Chorus again:

Chorus Chords: C  G  Dm  Am

Then play this tab through 3 times. (really fast!)
E----------------------------------------|
B----------------------------------------|
G----------------------------------------|
D----------------------------------------|
A----------------------------------------|
E-0-0-10-0-10-12-0-10-9-0-9-8-0-8-7------|
[ Tab from: http://www.guitartabs.cc/tabs/m/muse/hysteria_tab_ver_8.html ]
Now play this once (really fast!)
E--------------------------------------|
B--------------------------------------|
G--------------------------------------|
D--------------------------------------|
A-----------------10------10-10-11-12--|
E-0-0-10-0-10-12-0--0-12-0-------------|

Solo: This is the most tricky bit!
E------------------------------------------------|
B-------17-17-------18-18-------18-18-17-17----17|
G-14-14-------14-14-------14-14-------------14---|
D------------------------------------------------|
A------------------------------------------------|
E------------------------------------------------|

E------------------------------------------------|
B-------17-17-------18-18-------18-18-17-17------|
G-13-13-------13-13-------13-13-------------13---|
D------------------------------------------------|
A------------------------------------------------|
E------------------------------------------------|

E-------------------17-17------------------------|
B-------18-18-------------------18-18-------17-17|
G-14-14-------14-14-------14-14-------14-14------|
D------------------------------------------------|
A------------------------------------------------|
E------------------------------------------------|

E------------------------------------------------|
B-------17-17-------18-18-------18-18-17-17----17|
G-14-14-------14-14-------14-14-------------14---|
D------------------------------------------------|
A------------------------------------------------|
E------------------------------------------------|


E------------------------------------------------|
B-------17-17-------18-18-------18-18-17-17----17|
G-14-14-------14-14-------14-14-------------14---|
D------------------------------------------------|
A------------------------------------------------|
E------------------------------------------------|

E------------------------------------------------|
B-------17-17-------18-18-------18-18-17-17------|
G-13-13-------13-13-------13-13-------------13---|
D------------------------------------------------|
A------------------------------------------------|
E------------------------------------------------|

E-------------------17-17------------------------|
B-------18-18-------------------18-18-------17-17|
G-14-14-------14-14-------14-14-------14-14------|
D------------------------------------------------|
A------------------------------------------------|
E------------------------------------------------|

E------------------------------------------------|
B-17----------15-----------13---------12---------|
G---14-14-14----10-10-10-----9--9--9----7--7--7--|
D------------------------------------------------|
A------------------------------------------------|
E------------------------------------------------|
Now for the even harder part!!!
E-------------------------------------------|
B-13--------13-12-10h12-12------------------|
G----12--------------------12---------------|
D-------14--------------------12------------|
A-------------------------------------------|
E-------------------------------------------|

E-------------------------------------------|
B--12-13//15-------15-13-12h13-13-----------|
G------------14-------------------14--------|
D---------------15-------------------14-----|
A-------------------------------------------|
E-------------------------------------------|

E-------------------------------------------|
B--15-13-12h13-13------12/13\12-10h12-12----|
G----------------12---------------------12--|
D------------------14---------------------12|
A-------------------------------------------|
E-------------------------------------------|

E-------------------------------------------|
B--12-13/15-----------15-13-12h13-13--------|
G------------------------------------14-----|
D----------14 ~ ------------------------14--|
A-------------------------------------------|
E-------------------------------------------|

Few! Now play the chorus once again.
Chorus Chords: C  G  Dm  Am
Then Finish off with this tab: Play it through loads of times!
E----------------------------------------|
B----------------------------------------|
G----------------------------------------|
D----------------------------------------|
A----------------------------------------|
E-0-0-10-0-10-12-0-10-9-0-9-8-0-8-7------|

ENJOY!
Comments