Muse - Hysteria Chords & Tabs

 

Hysteria Chords & Tabs

Muse Chords & Tabs

Version: 3 Type: Tab 0 ratings
1 star 2 stars 3 stars 4 stars 5 stars
comments

Hysteria Tab

"Hysteria" by Muse
>From the album "Absolution"
Tabbed by Gavin
This tab is all my own work.

Standard tuning

/ = slide up
 = slide down
^ = bend

INTRO RIFF 1

4 bars bass guitar, then

with Whammy set 1 octave down, slowly raise the pedal as you play

e----------------------------------------------------------
B----------------------------------------------------------
G--2-2-2-2-2-2-2-2-2-2-2-2-2-2-2-2-2-2-2-2-2-2-2-2-2-2-2-2-
D----------------------------------------------------------
A----------------------------------------------------------
E----------------------------------------------------------

then


INTRO RIFF 2

e----------------------------------------
B-----12^10----12^10---12^10---12^12^12--
G----------------------------------------
D----------------------------------------   X 2
A--12-------11-------8-------7-----------
E----------------------------------------


Verse 1 (no guitar)


CHORUS


e--x-x-x-------------------------------------------------
B--x-x-x--------------------------6--6--6--6-------------
G--x-x-x--5--5--5--5--------------7--7--7--7-------------
D--x-x-x--5--5--5--5--5--5--5--5--7--7--7--7--7--7--7--7-
A--x-x-x--3--3--3--3--5--5--5--5--5--5--5--5--7--7--7--7-
E--x-x-x--------------3--3--3--3--------------5--5--5--5-


e------------------------------------------------------------------
B--------------------------6--6--6--6------------------------------
G--5--5--5--5--------------7--7--7--7------------------------------
D--5--5--5--5--5--5--5--5--7--7--7--7------------------------------
A--3--3--3--3--5--5--5--5--5--5--5--5------------------------------
E--------------3--3--3--3--------------0--0--10--10/12-15-12-15-17-


INTRO RIFF 2


Verse 2 (no guitar)


CHORUS 2


e--x-x-x-------------------------------------------------
B--x-x-x--------------------------6--6--6--6-------------
G--x-x-x--5--5--5--5--------------7--7--7--7-------------
D--x-x-x--5--5--5--5--5--5--5--5--7--7--7--7--7--7--7--7-
A--x-x-x--3--3--3--3--5--5--5--5--5--5--5--5--7--7--7--7-
E--x-x-x--------------3--3--3--3--------------5--5--5--5-


e-------------------------------------------------
B--------------------------6--6--6--6-------------
G--5--5--5--5--------------7--7--7--7-------------
D--5--5--5--5--5--5--5--5--7--7--7--7--7--7--7--7-
A--3--3--3--3--5--5--5--5--5--5--5--5--7--7--7--7-
E--------------3--3--3--3--------------5--5--5--5-


e------------------------------------------------------------
B------------------------------------------------------------
G------------------------------------------------------------
D------------------------------------------------------------
A------------------------------------------------------------
E--0-0-10-0-10/1210-109-98-87-10-0-10/1210-109-98-87-


e----------------------------------------------------
B----------------------------------------------------
G----------------------------------------------------
D----------------------------------------------------
A----------------------------------------------------
E--10-0-10/1210-109-98-87-10-0-10/12-15-12-15-17-


SOLO

[ Tab from: http://www.guitartabs.cc/tabs/m/muse/hysteria_tab_ver_3.html ]
e--------12-------13-------13-------12-------12-------13-------13-------12-
B--------------------------------------------------------------------------
G--14-14----14-14----14-14----14-14----13-13----13-13----13-13----13-13----
D--------------------------------------------------------------------------
A--------------------------------------------------------------------------
E--------------------------------------------------------------------------


e--------13-------17-------13-------12-------12-------13-------13-------12-
B--------------------------------------------------------------------------
G--14-14----14-14----14-14----14-14----14-14----14-14----14-14----14-14----
D--------------------------------------------------------------------------
A--------------------------------------------------------------------------
E--------------------------------------------------------------------------


e--------12-------13-------13-------12-------12-------13-------13-------12-
B--------------------------------------------------------------------------
G--14-14----14-14----14-14----14-14----13-13----13-13----13-13----13-13----
D--------------------------------------------------------------------------
A--------------------------------------------------------------------------
E--------------------------------------------------------------------------


e--------13-------17-------13-------12-
B--------------------------------------
G--14-14----14-14----14-14----14-14----
D--------------------------------------
A--------------------------------------
E--------------------------------------


e--12-------10-------8-------7-----
B----------------------------------
G-----14-14----12-12---10-10---9-9-
D----------------------------------
A----------------------------------
E----------------------------------


e--------------------------------------------10----------
B--13----------12^12-10-12----------12-12-13----10-------
G-----12-------------------12----------------------10----
D--------14-10----------------12----------------------12-
A--------------------------------14----------------------
E--------------------------------------------------------


e--10-------------------10----------------------------------------
B-----13-12/13-------------13-12/13----------12^12-10-12----------
G--------------14-------------------12-------------------12-------
D-----------------14-10----------------14-10----------------12----
A--------------------------------------------------------------14-
E-----------------------------------------------------------------

         slow bend
e-------------------10-------------------
B--12-12-13^^-10-------13-12-13----------
G----------------10-------------14-------
D----------------------------------14-10
A----------------------------------------
E----------------------------------------


CHORUS 2


ENDING

e------------------------------------------------------------
B------------------------------------------------------------
G------------------------------------------------------------
D------------------------------------------------------------
A------------------------------------------------------------
E--0-0-10-0-10/1210-109-98-87-10-0-10/1210-109-98-87-


e--------------------------------------------------------
B--------------------------------------------------------
G--------------------------------------------------------
D--------------------------------------------------------
A--------------------------------------------------------
E--10-0-10/1210-109-98-87-10-0-10/1210-109-98-87-


e--------------------------------------------------------
B--------------------------------------------------------
G--------------------------------------------------------
D--------------------------------------------------------
A--------------------------------------------------------
E--10-0-10/1210-109-98-87-10-0-10/1210-109-98-87
Comments