Muse - Hysteria Chords & Tabs

 

Hysteria Chords & Tabs

Muse Chords & Tabs

Version: 11 Type: Tab 0 ratings
1 star 2 stars 3 stars 4 stars 5 stars
comments

Hysteria Tab

   
This is my first tab so go easy. :)

After Bass Intro....

Big scrape with loads of distortion
from 9 to 17 on bottom E.

/= slide
bb= double bend

Then....
e-----------------------------------------------------|
B-----------------------12b-10------------------------|
G-----------------------------------------------------|
D-----------------------------------------------------|
A--12-12-12-12-12-12-12--------11-11-11-11-11-11-11---|
E-----------------------------------------------------|

e-----------------------------------------------------|
B--12b-10------------------------12b-10---------------|
G-----------------------------------------------------|
D-----------------------------------------------------|
A-----------------------------------------------------|
E----------13-13-13-13-13-13-13-----------------------|


e-----------------------------------------------------|
B-----------------------12bb--------------------------|
G-----------------------------------------------------|
D-----------------------------------------------------|
A-----------------------------------------------------|
E-12-12-12-12-12-12-12--------------------------------|

Verse 1

Chords...

Am
Its bugging me.....
E7
Crueling Me....
Dm               Am
And twisting me around....
Am
Yeah I'm endlessly.....
E7
Caving in.....
Dm                 Am
And turning inside out....


Chorus

Am              C
Cause i want it now
          G
I want it now
Dm                     Am
Give me your heart and your soul
Am           C
And breaking out
         G
Breaking out
Dm                Am
I swear to lose control

e-----------------------------------------------------|
B-----------------------12b-10------------------------|
G-----------------------------------------------------|
D-----------------------------------------------------|
A--12-12-12-12-12-12-12--------11-11-11-11-11-11-11---|
E-----------------------------------------------------|

e-----------------------------------------------------|
B--12b-10------------------------12b-10---------------|
G-----------------------------------------------------|
D-----------------------------------------------------|
A-----------------------------------------------------|
E----------13-13-13-13-13-13-13-----------------------|


e-----------------------------------------------------|
B-----------------------12bb--------------------------|
G-----------------------------------------------------|
D-----------------------------------------------------|
A-----------------------------------------------------|
E-12-12-12-12-12-12-12--------------------------------|

Then the same chords for Verse 2 and the chorus....

Solo....

e-----------------------------------------------------|
B-------17-17-------18-18--------18-18-17-17----------|
G-14-14-------14-14--------14-14--------------14-14---|
D-----------------------------------------------------|
A-----------------------------------------------------|
E-----------------------------------------------------|
[ Tab from: http://www.guitartabs.cc/tabs/m/muse/hysteria_tab_ver_11.html ]
e-----------------------------------------------------|
B-------17-17-------18-18--------18-18-17-17----------|
G-13-13-------13-13--------13-13--------------13-13---|
D-----------------------------------------------------|
A-----------------------------------------------------|
E-----------------------------------------------------|

e-------------------17-17-----------------------------|
B-------17-17----------------------18-18-17-17--------|
G-14-14-------14-14-------14-14----------------14-14--|
D-----------------------------------------------------|
A-----------------------------------------------------|
E-----------------------------------------------------|

e-----------------------------------------------------|
B-------17-17-------18-18--------18-18-17-17----------|
G-14-14-------14-14--------14-14--------------14-14---|
D-----------------------------------------------------|
A-----------------------------------------------------|
E-----------------------------------------------------|

e-----------------------------------------------------|
B-------17-17-------18-18--------18-18-17-17----------|
G-14-14-------14-14--------14-14--------------14-14---|
D-----------------------------------------------------|
A-----------------------------------------------------|
E-----------------------------------------------------|

e-----------------------------------------------------|
B-------17-17-------18-18--------18-18-17-17----------|
G-13-13-------13-13--------13-13--------------13-13---|
D-----------------------------------------------------|
A-----------------------------------------------------|
E-----------------------------------------------------|

e-------------------17-17-----------------------------|
B-------17-17----------------------18-18-17-17--------|
G-14-14-------14-14-------14-14----------------14-14--|
D-----------------------------------------------------|
A-----------------------------------------------------|
E-----------------------------------------------------|

e-12-0-0-0-10-0-0-0-8-0-0-0-7-0-0-0-------------------|
B-----------------------------------------------------|
G-----------------------------------------------------|
D-----------------------------------------------------|
A-----------------------------------------------------|
E-----------------------------------------------------|


e-----------------------------------------------------|
B-13-------13-12-10h12-------12-12h13-15--------------|
G----12----------------12-----------------14----------|
D-------14----------------12-----------------15-------|
A-----------------------------------------------------|
E-----------------------------------------------------|

e-----------------------------------------------------|
B-15-13-12h13-------15-13-12h13-----------------------|
G-------------14----------------12--------------------|
D----------------14----------------14-----------------|
A-----------------------------------------------------|
E-----------------------------------------------------|

e-----------------------------------------------------|
B-13-12-10h12-------12-13/15-------15-13-12h13--------|
G-------------12-------------14----------------14-----|
D----------------12-------------15----------------14--|
A-----------------------------------------------------|
E-----------------------------------------------------|

Repeat Chorus using the same chords....

Outro......

If you have any queeries or faults you would like to point out, e-mail me at citizenerazed@hotmail.com.

Thanks

Bellamies Idol
A.K.A
Vonjoshco
Comments