Muse - Hysteria Chords & Tabs

 

Hysteria Chords & Tabs

Muse Chords & Tabs

Version: 4 Type: Bass Tab 0 ratings
1 star 2 stars 3 stars 4 stars 5 stars
comments

Hysteria Bass Tab

   
Trust me the verse is 100% correct

G:------------------------------------------------------------------------
D:------------------------------------------------------------------------
A:-0-0-10-0-10-12-0-10-0-7-0-8-8-7-5-7------------------------------------
E:-------------------------------------0-0-10-0-10-12-0-15-0-12-0-15-15-12

G:-------------------------------------------------------------------------
D:-------0-0-10-0-10-12-0-10-0-10-9-0-9-8-0-8-7----------------------------
A:----------------------------------------------0-10-0-10-12-0-10-0-7-0-8-8
E:-15-17-------------------------------------------------------------------

G:------
D:------
A:-7-5-7
E:------ play that 6 times

The chorus I'm not too sure about

G:--------------------------------------------------------------
D:--------------------------------------------------------------
A:-0-10-0-10-12-0-0-10-0-10-12-10-------------------------------
E:--------------------------------0-10-0-10-12-0-0-10-0-10-12-10

G:--------------------------------------------------------------
D:-0-10-0-10-12-0-0-10-0-10-12-10-------------------------------
A:--------------------------------0-10-0-10-12-0-0-10-0-10-12-10
E:-------------------------------------------------------------- play that two times 

for the second verse play this 3 times

G:------------------------------------------------------------------------
D:------------------------------------------------------------------------
A:-0-0-10-0-10-12-0-10-0-7-0-8-8-7-5-7------------------------------------
E:-------------------------------------0-0-10-0-10-12-0-15-0-12-0-15-15-12

G:-------------------------------------------------------------------------
D:-------0-0-10-0-10-12-0-10-0-10-9-0-9-8-0-8-7----------------------------
A:----------------------------------------------0-10-0-10-12-0-10-0-7-0-8-8
E:-15-17-------------------------------------------------------------------

G:------
D:------
A:-7-5-7
E:------ 

for the second chorus play this 2 times

G:--------------------------------------------------------------
D:--------------------------------------------------------------
A:-0-10-0-10-12-0-0-10-0-10-12-10-------------------------------
E:--------------------------------0-10-0-10-12-0-0-10-0-10-12-10

G:--------------------------------------------------------------
D:-0-10-0-10-12-0-0-10-0-10-12-10-------------------------------
A:--------------------------------0-10-0-10-12-0-0-10-0-10-12-10
E:-------------------------------------------------------------- 

leading to the riff play this once

G:-------------------------------------------------------------------------
D:-0-0-10-0-10-12-0-10-0-10-9-0-9-8-0-8-7--0-10-0-10-12-0-10-0-10-9-0-9-8-0
A:-------------------------------------------------------------------------
E:-------------------------------------------------------------------------

G:--------------------------------------------------------------------------
D:-8-7--0-10-0-10-12-0-10-0-10-9-0-9-8-0-8-7--0-10-0-10-12-0-15-0-12-0-15-15
A:--------------------------------------------------------------------------
E:--------------------------------------------------------------------------
[ Tab from: http://www.guitartabs.cc/tabs/m/muse/hysteria_btab_ver_4.html ]
G:--------
D:-0-15-17
A:--------
E:--------

During the riff play this once

(part one)

G:------------------------------------------------------------------------
D:------------------------------------------------------------------------
A:-0-0-10-0-10-12-0-10-0-7-0-8-8-7-5-7------------------------------------
E:-------------------------------------0-0-10-0-10-12-0-15-0-12-0-15-15-12

G:-------------------------------------------------------------------------
D:-------0-0-10-0-10-12-0-10-0-10-9-0-9-8-0-8-7----------------------------
A:----------------------------------------------0-10-0-10-12-0-10-0-7-0-8-8
E:-15-17-------------------------------------------------------------------

G:------
D:------
A:-7-5-7
E:------ 

G:------------------------------------------------------------------------
D:------------------------------------------------------------------------
A:-0-0-10-0-10-12-0-10-0-7-0-8-8-7-5-7------------------------------------
E:-------------------------------------0-0-10-0-10-12-0-15-0-12-0-15-15-12

G:-------------------------------------------------------------------------
D:-------0-0-10-0-10-12-0-10-0-10-9-0-9-8-0-8-7----------------------------
A:----------------------------------------------0-10-0-10-12-0-10-0-7-0-8-8
E:-15-17-------------------------------------------------------------------

G:------
D:------
A:-7-5-7
E:------ 

(part two)

G:--------------------------------------------------------------
D:--------------------------------------------------------------
A:-0-10-0-10-12-0-0-10-0-10-12-10-------------------------------
E:--------------------------------0-10-0-10-12-0-0-10-0-10-12-10

G:--------------------------------------------------------------
D:-0-10-0-10-12-0-0-10-0-10-12-10-------------------------------
A:--------------------------------0-10-0-10-12-0-0-10-0-10-12-10
E:-------------------------------------------------------------- 

G:--------------------------------------------------------------
D:--------------------------------------------------------------
A:-0-10-0-10-12-0-0-10-0-10-12-10-------------------------------
E:--------------------------------0-10-0-10-12-0-0-10-0-10-12-10

G:--------------------------------------------------------------
D:-0-10-0-10-12-0-0-10-0-10-12-10-------------------------------
A:--------------------------------0-10-0-10-12-0-0-10-0-10-12-10
E:-------------------------------------------------------------- 

For the last chorus play this twice

G:--------------------------------------------------------------
D:--------------------------------------------------------------
A:-0-10-0-10-12-0-0-10-0-10-12-10-------------------------------
E:--------------------------------0-10-0-10-12-0-0-10-0-10-12-10

G:--------------------------------------------------------------
D:-0-10-0-10-12-0-0-10-0-10-12-10-------------------------------
A:--------------------------------0-10-0-10-12-0-0-10-0-10-12-10
E:-------------------------------------------------------------- 

For the outro play this six times
G:-------------------------------------
D:-0-10-0-10-12-0-10-0-10-9-0-9-8-0-8-7
A:-------------------------------------
E:-------------------------------------

Hope you enjoy the tab, any problems let me know (Shamusus@hotmail.com)
Comments