Muse - Hysteria Chords & Tabs

 

Hysteria Chords & Tabs

Muse Chords & Tabs

Version: 1 Type: Bass Tab 8 ratings
1 star 2 stars 3 stars 4 stars 5 stars
comments

Hysteria Bass Tab

   
#----------------------------------PLEASE NOTE---------------------------------#
#This file is the author's own work and represents their interpretation of the #
#song. You may only use this file for private study, scholarship, or research. #
#------------------------------------------------------------------------------#

Song: Hysteria
Band: Muse
Album: Absolution


Tabbed By Talis, (TalisKharn@hotmail.com)

This is a fast and constant bass pattern, the trick is accuracy on the alternation 
between the open strings and the fretted, Not sure if i find this easier played with 
the fingers rather than a plectrum. It is worth noting that this is not the easiest 
piece in the world to play due to the constant speed of the riff, in lamens terms be 
prepared for some ache, but be assured it is worth the effort.

Listen to and play along with the song to get aquainted with the changes.

This is my first attempt at tabbing a piece so any corrections feel free.
Any comments please feel free also.


The Main Riff!!
Played as intro and for main verse

G|------------------------------------------------------------
D|-----5---5-7---5----2--3-3-2-0-2----------------5---5-5-5-7-
A|-0-0---0-----0---0----0---------------5---5-7-----7----7----
E|-----------------------------------0-0---0----0--0-0--------



G|-----5-5-7---5---5\4---4\3---3--------------------------------
D|-0-0--0----0---0-----0-----0-------5---5-7---5----2--3-3-2-0-2
A|-------------------------------0-0---0-----0---0----0---------
E|--------------------------------------------------------------

Riff Change leading into chorus 

G|-----5-5-7---5---5\4---4\3---3--------------------------------
D|-0-0--0----0---0-----0-----0----------------------------------
A|------------------------------0-0-0-0-0-0-0-0-0-0-0-0-0-0-0-0-
E|--------------------------------------------------------------

1st Chorus 1st part

G|----3-5-----------3-5----------------------------5-7----------
D|---------------------------3-5---------3-5--------------------
A|-3-3-----3--3-3-3-----0---------------------0-5-5-----5--5-5-5
E|-----------------------3-3-----3--3-3-3-----------------------



G|-5-7-------------------------
D|-----------5-7---------5-7---
A|-----0-----------------------
E|-------5-5-----5--5-5-5------

1st Chorus 2nd part

G|----3-5-----------3-5----------------------------5-7----------
D|---------------------------3-5---------3-5--------------------
A|-3-3-----3--3-3-3-----0---------------------0-5-5-----5--5-5-5
E|-----------------------3-3-----3--3-3-3-----------------------


[ Tab from: http://www.guitartabs.cc/tabs/m/muse/hysteria_btab.html ]
G|-5-7--------------------------
D|------------------5---5-5-5-7-
A|--------5---5-7-----7----7----
E|-----0-0---0----0--0-0--------


2nd Chorus 1st part

G|----3-5-----------3-5----------------------------5-7----------
D|---------------------------3-5---------3-5--------------------
A|-3-3-----3--3-3-3-----0---------------------0-5-5-----5--5-5-5
E|-----------------------3-3-----3--3-3-3-----------------------




G|-5-7-------------------------
D|-----------5-7---------5-7---
A|-----0-----------------------
E|-------5-5-----5--5-5-5------


2nd Chorus 2nd Part (leading to bridge)

G|----3-5-----------3-5----------------------------5-7------------
D|---------------------------3-5---------3-5----------------------
A|-3-3-----3--3-3-3-----0---------------------0-5-5-----5--5-5-5--
E|-----------------------3-3-----3--3-3-3-------------------------




G|-5-7--------------------------------
D|--------7-----5-7-------------------
A|------------------------------7-----
E|----------5-------5-5-5-5-5-----0---

Bridge section leading to solo

G|-----------------------------------------------------------------
D|-----------------------------------------------------------------
A|-----5---5-7----5---5\4--4\3--3\2---5---5-7----5---5\4--4\3--3\2-
E|-0-0---0------0---0----0----0----0----0------0---0----0----0-----


G|-----------------------------------------------------------------
D|------------------------------------------5---5-5-5-7------------
A|---5---5-7----5---5\4--4\3--3\2--5--5-7-----7----7---------------
E|-0---0------0---0----0----0----0---0----0--0-0-------------------


Solo Section = Play Main Riff over 3/4 of Solo then change as follows
For lead into pre chorus
					
G|-----------------------------------
D|-----------------------------------
A|-5-7-0-0-0-5-0-0-0-3-0-0-0-2-0-0-0-
E|-----------------------------------


(pre chorus play x2)

G||---5--3-5-------5--3-5---------------------------------
D||---------5------------5----------5--3-5-------5--3-5---
A||-3----------3-3------------------------5------------5--
E||------------------------------3----------3-3-----------





G|---7--5-7--------7--5-7---------------------------------||
D|---------7-------------7-----7--5-7-------7--5-7--------||
A|5----------5-5---------------------7-------------7------||
E|-------------------------5-----------5-5----------------||

Back into 1st Chorus 
Then 2nd Chorus
Finishing with the bridge section that leads into the main solo section.

Well hopefully thats that one sussed out!

as before any comments or corrections please feel free to mail us.
Comments