Muse - Hypermusic Chords & Tabs

 

Hypermusic Chords & Tabs

Muse Chords & Tabs

Version: 1 Type: Bass Tab 0 ratings
1 star 2 stars 3 stars 4 stars 5 stars
comments

Hypermusic Bass Tab

This is a really cool bass tab by muse. I looked everywhere for 
this but all i needed was the help of 'conote666'(thanx m8). Anyway I have 
submitted it to u guys. Enjoy!

Dropped D Tuning

Intro/Prechorus x 4

G|---------
D|---------
A|---------
D|-0/12\0--
[ Tab from: http://www.guitartabs.cc/tabs/m/muse/hypermusic_btab.html ]
Chorus
G|---------------------------
D|---------------------------
A|---5-----3-5---5-----------
D|-0---3-5-----0---3-5-3-2---

Verse
G|-----------------------------------------------------------------------------------
D|-0-0-0-2-0-3-3-0-5-0-7-7-0-9-0-10-10-0-12-0-5-5-0-5-0-5-5-0-5-0-5-5-0-7-0-8-8-x---0
A|--------------------------------------------------------------------------------3--
D|----------------------------------------------------------------------------------- 
Comments