Muse - Hyper Music Chords & Tabs

 

Hyper Music Chords & Tabs

Muse Chords & Tabs

Version: 5 Type: Tab 0 ratings
1 star 2 stars 3 stars 4 stars 5 stars
comments

Hyper Music Tab

Muse - Hyper Music 

Tabbed by (me) J.B 2002

I decided to write this one in as the hyper music tab already up is wrong.

Drop D tuning (as with most muse songs)


-- Key --

X~ - pick scratch
x - mute (muffle)
/ - slide
h - hammer on
po - pull off
BU - Bend up
PB - Pre bend (bend string and then pluck it)

Okay here it is:


Gtr 1. Heavy Dist.  (BPM 122)


At the start do some, ad lib pick scratching at the top of neck (where the strings meet the body of the guitar) Gradual Accel.


				---- INTRO ----			

---Fig 1----
_______________________________________________________________________________________________

E -------13-------------------------------------|------12-------------------------------------
B -------13------12--13--12--11-----------------|------13-------------------------------------
G -------11---0--------------------(3 times)----|------11-------------------------------------
D -------12------12--12--12--12-----------------|------12-------------------------------------
A ----------------------------------------------|---------------------------------------------
D --0-------------------------------------------|--0-----------12--12--12\--------------------
_______________________________________________________________________________________________
										
										[Ooh.......]

E -------------------------------------------------------------------------|------------------
B --------6------------------------------6---------------------------------|------------------
G --------5------------------------------5---------------------------------|------------------
D --------4------------------------------4-------3--3--3--3-----(2 times)--|------------------
A -------(5)------------3--5------------(5)------2--3--2--1----------------|------------------
D --0-----------0--3--5------------0---------------------------------------|------------------



E --------------------------------------------------------|----------------|------------------
B ---------6------------------------------6-----x--x--x---|----------------|------------------
G ---------5------------------------------5-----x--x--x---|----------------|------------------
D ---------4------------------------------4-----x--x--x---|----(16 times)--|------------------
A --------(5)------------3--5------------(5)----x--x--x---|--10------------|------------------
D --0----------0--3--5------------0-----------------------|--10------------|------------------

-- Verse --


E --------------------------------------------------------------------------------------------
B --------------------------------------------------------------------------------------------
G ------------------------------------------------------------------------Repeat as many------
D --10--10--10--10----9---9---9---9-----7--7--7--7----7--7--7--7----------times as it does----
A --10--10--10--10----10--10--10--10----8--8--8--8----8--8--8--8----------in the song---------
D --10--10--10--10----8---8---8---8-----7--7--7--7----6--6--6--6------------------------------


--------------------------- BASS ARRANGEMENT FOR THE GUITAR ----------------------------------
				(for the verses)

E --------------------------------------------------------------------------------------------
B --------------------------------------------------------------------------------------------
G --------------------------------------------------------------------------------------------
D --------------------------------------------------------------------------------------------
A --------------------------------------------------------------------------------------------
D --0--0--x--2--x--3--x--3--3--x--5--x--7--7--x--9--x--10--10--10--x--12--x--5--5--x--5--x--5-



E --------------------------------------------------------------------------------------------
B -------------------------------------------------Repeat as many times-----------------------
G -------------------------------------------------as it does in the song---------------------
D --------------------------------------------------------------------------------------------
A -------------------------0--x--1--1--x--3--x------------------------------------------------
D --5--x--5--x--5--5--x-----------------------------------------------------------------------


----------------------------------------------------------------------------------------------



The lyrics for Verse one:

And your Golden Skies, 
Feed my role,
In this forgotten space race,
Under my control..

Who's returned from the dead?
Who remains?


						[Just to spit it in your face!!!!]
[ Tab from: http://www.guitartabs.cc/tabs/m/muse/hyper_music_tab_ver_5.html ]
E --------------------------------------------------------------------------------------------
B --------------------------------------------------------------------------------------------
G --------------------------------------------------------------------------------------------
D --------------------------------------------------------------------------------------------
A --------------------------------------------------------------------------------------------
D --Make a chugging sound by repeatedly scratching the D string (drop D) as the top of neck---



Repeat Fig 1 here ----

Lyrics at end of repeated Fig 1 -- [You know that I....] 



Then go on to this......



   [...don't love you, ________________ and I never did. 

E ------------------------------------------------------------------------|-------------------
B ------6------------------------------6----------------------------------|-------------------
G ------5------------------------------5---------------------- Play this -|-------------------
D ------4---------------5---7----------4----3--3--3--3---------- 4 times -|-------------------
A -----(5)------3---5---3---5---------(5)---2--3--2--1--------------------|---10--(16 times)--
D --0--------0--3---5--------------0--------------------------------------|---10--------------


Chorus one, Lyrics:

You know that I don't love you!
And I never did!
I don't want you!
And I never will!


E --------------------------------------------------------------------------------------------
B -------------------------------------------------------------------------------------Repeat-
G -*-----------------------------------------------------------------------------------to how-
D --10---10---10---10-----9----9----9----9------7---7---7---7-----7---7---7---7--------many --
A ----10---10---10---10-----10---10---10---10-----8---8---8---8-----8---8---8---8------times -
D ------10---10---10---10-----8----8----8----8------7---7---7---7-----6---6---6---6----in song

* = Alternate notes



Repeat Fig 1 here ----

Lyrics at end of repeated Fig 1 -- [You know that I....] 


  [...don't want you, ________________ and I never did. 

E ------------------------------------------------------------------------|-------------------
B ------6------------------------------6----------------------------------|-------------------
G ------5------------------------------5---------------------- Play this -|-------------------
D ------4---------------5---7----------4----3--3--3--3---------- 4 times -|----- WAAAAAHHH!! -
A -----(5)------3---5---3---5---------(5)---2--3--2--1--------------------|-------------------
D --0--------0--3---5--------------0--------------------------------------|-------------------


Chorus two, Lyrics:

You know that I don't want you!
And I never did!
I don't love you!
And I never will!


E --------------------------------------------|-------13--------------------------------------
B -------13-----------------------------------|-------13-----12^-(quarter bend)---------------
G -------11-----------------------(3 times)---|-------11-----12^------------------------------
D -------12----\--11--11--11------------------|-------12--------------------------------------
A -------0------------------------------------|-------0---------------------------------------
D --0----0------------------------------------|--0----0---------------------------------------




E --------------------------------------------------------------------------------------------
B ---------------12--------12-------------------------------6-----12^-------------------------
G ---10h12p10---------10--------0---------------------------5-----12^-------------------------
D ----------------------------------------------------------4---------------------------------
A ----------------------------------------3---5------------(5)--------------------------------
D ----------------------------------4--5----------------0-------------------------------------




E ---------------------------------------------------------|----------------------|-----------
B ---------------12-----12--------------------------6------|--14------------------|-----------
G --10--12--10------10-----0------------------------5------|--13---(play 8 times)-|-----------
D --------------------------------------------------4------|----------------------|-----------
A -----------------------------------3--5----------(5)-----|----------------------|-----------
D -----------------------------4--5------------0-----------|----------------------|-----------


E --------------------------------------------------------------------------------------------
B --------------------------------------------------------------------------------------------
G --------------------------------------------------------------------------------------------
D --------------------------------------------------------------------------------------------
A --------------------------------------------------------------------------------------------
D --0-- (let ring) ---------------------------------------------------------------------------
Comments