Muse - Hyper Music Chords & Tabs

 

Hyper Music Chords & Tabs

Muse Chords & Tabs

Version: 2 Type: Bass Tab 0 ratings
1 star 2 stars 3 stars 4 stars 5 stars
comments

Hyper Music Bass Tab

   
Intro/Pre-chorus:

G|--------|
D|--------|
A|--------|
D|-10-/-0-| 

Chorus:

G|----------------------------------|
D|----------------------------------|
A|-----5-------3-5------5---3-5-3-1-|
D|-0-------3-5------0---------------|

Vers:
[ Tab from: http://www.guitartabs.cc/tabs/m/muse/hyper_music_btab_ver_2.html ]
G|------------------------------------------|
D|-0-0-0h2p0-3-3-0h5p0-6-6-0h8p0-9-9-0h12p0-|
A|------------------------------------------|
D|------------------------------------------|

G|------------------------------------------|
D|-5-5-0h5p0-5-5-0h5p0-5-5-0h5p0-7-7--------|
A|-----------------------------------0h3p0--|
D|------------------------------------------|
(this is very fast!!You have to listen to the song for the right rythm)

Order:

Intro
Chorus
Vers
Pre-chorus
Chorus
Vers 
Pre-chorus
chorus
Comments