Muse - House Of The Rising Sun Chords & Tabs

 

House Of The Rising Sun Chords & Tabs

Muse Chords & Tabs

Version: 1 Type: Tab 0 ratings
1 star 2 stars 3 stars 4 stars 5 stars
comments

House Of The Rising Sun Tab

   
An Animals cover, uses same chords but uses heavy downstrokes and palm muting I've
updated it and added the riff after the chorus, enjoy! :)

Intro:
   Am    Am             C              D              F
e|----||-------------------------------2-2-2-2-2-2-2--1-1-1-1-1-1-1-|
B|-1~-||-1-1-1-1-1-1-1--1-1-1-1-1-1-1--3-3-3-3-3-3-3--1-1-1-1-1-1-1-|
G|-2~-||-2-2-2-2-2-2-2-----------------2-2-2-2-2-2-2--2-2-2-2-2-2-2-|
D|-2~-||-2-2-2-2-2-2-2--2-2-2-2-2-2-2-----------------3-3-3-3-3-3-3-|
A|----||----------------3-3-3-3-3-3-3-----------------1-1-1-1-1-1-1-|
E|----||----------------------------------------------1-1-1-1-1-1-1-|

        P.M---------------------------------------------------------|

Verse/Chorus:(Downstrokes)
[ Tab from: http://www.guitartabs.cc/tabs/m/muse/house_of_the_rising_sun_tab.html ]
   Am             C              D              F
e|-------------------------------2-2-2-2-2-2-2--1-1-1-1-1-1-1-|
B|-1-1-1-1-1-1-1--1-1-1-1-1-1-1--3-3-3-3-3-3-3--1-1-1-1-1-1-1-|
G|-2-2-2-2-2-2-2-----------------2-2-2-2-2-2-2--2-2-2-2-2-2-2-| X4
D|-2-2-2-2-2-2-2--2-2-2-2-2-2-2-----------------3-3-3-3-3-3-3-|
A|----------------3-3-3-3-3-3-3-----------------1-1-1-1-1-1-1-|
E|----------------------------------------------1-1-1-1-1-1-1-|

Bridge Riff played after Chorus:

e|-------------------------------------------|
B|-5---5-3-1-5---7---7-5-3-5b6---------------|
G|-------------------------------------------|
D|-------------------------------------------|
A|-------------------------------------------|
E|-------------------------------------------|

e|-------------------------------------------|
B|-5---5-3-1-5---5-3-1-----------------------|
G|---------------------4/2---2/4-------------|
D|-------------------------------------------|
A|-------------------------------------------|
E|-------------------------------------------|

Outro:
  Am              C              D              F
e|-------------------------------2-2-2-2-2-2-2--1-1-1-1-1-1-1-|
B|-1-1-1-1-1-1-1--1-1-1-1-1-1-1--3-3-3-3-3-3-3--1-1-1-1-1-1-1-|
G|-2-2-2-2-2-2-2-----------------2-2-2-2-2-2-2--2-2-2-2-2-2-2-|
D|-2-2-2-2-2-2-2--2-2-2-2-2-2-2-----------------3-3-3-3-3-3-3-|
A|----------------3-3-3-3-3-3-3-----------------1-1-1-1-1-1-1-|
E|----------------------------------------------1-1-1-1-1-1-1-|
 
 P.M----------------------------------------------------------|

End with Feedback
Comments