Muse - Glorious Chords & Tabs

 

Glorious Chords & Tabs

Muse Chords & Tabs

Version: 5 Type: Tab

Glorious Tab

                                Glorious
                                  Muse
             Black Holes and Revelations (Japanese Bonus Track)
                                  2006

Alright guys, this is my first tab so go easy!

Intro

e ------------------------------------------------------------|
B ------------------------------------------------------------|
G -9--9------9--9---------------------------------------------|
D -9--9--9-6-9--9--9-6----------------------------------------|
A -7--7--6-6-7--7--6-6----------------------------------------|
E ---------4---------4----------------------------------------|

e ------------------------------------------------------------|
B ------------------------------------------------------------|
G ------------------------------------------------------------|
D --9-8-9-11-9-8-9-8-9-11-9-8-9-8-9-11-9-8-9-8-9-11-9---------|
A ---7-7-7--7-----7-7-7--7-----7-7-7--7-----7-7-7--7-8--------|
E ------------------------------------------------------------|

e ------------------------------------------------------------|
B ------------------------------------------------------------|
G ------------------------------------------------------------|
D -9-8-9-11-9-8-9-8-9-11-9-8-9-8-9-11-9-8-9-8-9-11-9-8--------|
A --7-7-7--7---------7--7---------7--7---------7--7-----------|
E ------------------------------------------------------------|

Verse

e ------------------------------------------------------------|
B ------------------------------------------------------------|
G -9--9------9--9---------------------------------------------|
D -9--9--9-6-9--9--9-6----------------------------------------|
A -7--7--6-6-7--7--6-6----------------------------------------|
E ---------4---------4----------------------------------------|

e ------------------------------------------------------------|
B ------------------------------------------------------------|
G ------------------------------------------------------------|
D --9-8-9-11-9-8-9-8-9-11-9-8-9-8-9-11-9-8-9-8-9-11-9---------|
A ---7-7-7--7-----7-7-7--7-----7-7-7--7-----7-7-7--7-8--------|
E ------------------------------------------------------------|

e ------------------------------------------------------------|
B ------------------------------------------------------------|
G ------------------------------------------------------------|
D -9-8-9-11-9-8-9-8-9-11-9-8-9-8-9-11-9-8-9-8-9-11-9-8-9-11b--|
A --7-7-7--7---------7--7---------7--7---------7--7-----------|
E ------------------------------------------------------------|

Pre-Chorus

e ------------------------------------------------------------|
B ------------------------------------------------------17-18-|
G -8-9-10-11-8-9-10-11-8-9-10-11-12-13-14-15-16-18-19-20------|
D ------------------------------------------------------------|
A ------------------------------------------------------------|
E ------------------------------------------------------------|

e -------------------------------------------------------------|
B -19-20-------------------------------------------------------|
G -------------------------------------------------------------|
D -------------------------------------------------------------|
A -------------------------------------------------------------|
E -------------------------------------------------------------|

Chorus

e -15-14-12-11-15-16-18-19-19-18-16-14-14-12--------------------|
B --------------------------------------------------------------|
G --------------------------------------------------------------|
D --------------------------------------------------------------|
A --------------------------------------------------------------|
E --------------------------------------------------------------|

Interlude (Two guitars)

1st Guitar
[ Tab from: http://www.guitartabs.cc/tabs/m/muse/glorious_tab_ver_5.html ]
e ------------------------------------------------------------|
B ------------------------------------------------------------|
G ------------------------------------------------------------|
D --9-8-9-11-9-8-9-8-9-11-9-8-9-8-9-11-9-8-9-8-9-11-9---------|
A ---7-7-7--7-----7-7-7--7-----7-7-7--7-----7-7-7--7-8--------|
E ------------------------------------------------------------|

2nd Guitar (this is the one Matt plays live)

e ---------------------------------4-4-4-4-4-4-4-4-------------|
B ---------------------------------4-4-4-4-4-4-4-4-------------|
G -9-9-9-9-9-9-9-9-----------------4-4-4-4-4-4-4-4-------------|
D -9-9-9-9-9-9-9-9-2-2-2-2-2-2-2-2-6-6-6-6-6-6-6-6-------------| x2
A -7-7-7-7-7-7-7-7-2-2-2-2-2-2-2-2-4-4-4-4-4-4-4-4-------------|
E -----------------0-0-0-0-0-0-0-0-4-4-4-4-4-4-4-4-------------|

Then back to:

e ------------------------------------------------------------|
B ------------------------------------------------------------|
G ------------------------------------------------------------|
D --9-8-9-11-9-8-9-8-9-11-9-8-9-8-9-11-9-8-9-8-9-11-9---------|
A ---7-7-7--7-----7-7-7--7-----7-7-7--7-----7-7-7--7-8--------|
E ------------------------------------------------------------|

e ------------------------------------------------------------|
B ------------------------------------------------------------|
G ------------------------------------------------------------|
D -9-8-9-11-9-8-9-8-9-11-9-8-9-8-9-11-9-8-9-8-9-11-9-8-9-11b--|
A --7-7-7--7---------7--7---------7--7---------7--7-----------|
E ------------------------------------------------------------|

Pre-Chorus

 -------------------------------------------------------------|
B ----------------------------------17-18-19-20---------------|
G -8-9-10-11-12-13-14-15-16-18-19-20--------------------------|
D ------------------------------------------------------------|
A ------------------------------------------------------------|
E ------------------------------------------------------------|

Chorus

Chorus

e -15-14-12-11-15-16-18-19-19-18-16-14-14-12--------------------|
B --------------------------------------------------------------|
G --------------------------------------------------------------|
D --------------------------------------------------------------|
A --------------------------------------------------------------|
E --------------------------------------------------------------|

Outro

e ---------------------------------------------------------------|
B ---------------------------------------------------------------|
G ---------------------------------------------------------------|
D -9-8-9-11-9-8-9-8-9-11-9-11-11-9-11-13-11-9--------------------|
A --7-7-7--7-----7-7-7----------9-9--9--9------------------------|
E ---------------------------------------------------------------|

e ---------------------------------------------------------------|
B ---------------------------------------------------------------|
G ---------------------------------------------------------------|
D -11-9-11-13-11-13-14-13-11-9-11-13-14-13-11-9-9----------------|
A ---9-9--9--9--------9--9--9-9--------9--9--9-9-----------------|
E ---------------------------------------------------------------|

e ---------------------------------------------------------------|
B ---------------------------------------------------------------|
G --------------------------------------------------11-----------|
D -11-13-14-13-11-9-11-13-14-13-11-9-11-13-14-13-14----14-13-----|
A ---------9--9--9-9--------9--9--9-9--------9--9--9--9--9--9----|
E ---------------------------------------------------------------|

e ---------------------------------------------------------------|
B ---------------------------------------------------------------|
G ----------11-------9-------------------------------------------|
D -14-13-14----14-13-9-------------------------------------------|
A ---9--9--9--9--9---7-------------------------------------------|
E ---------------------------------------------------------------|

                             ^
                             |
                             |

                      This bit isn't right but it's only a small thing. I end the song
like this but if you want to try and learn the real ending I'm sure it's between the 9th
and 14th frets on the A,D and G strings. Hope you guys enjoyed this :)Any corrections or 
that end bit just leave in the comments.