Muse - Get A Grip Chords & Tabs

 

Get A Grip Chords & Tabs

Muse Chords & Tabs

Version: 1 Type: Tab 0 ratings
1 star 2 stars 3 stars 4 stars 5 stars
comments

Get A Grip Tab

Intro - Egyptian Riff... improvise around with this... as matt does!...
e|---------------------------------------------------------------------------|
B|-10-9-6-6h9p6-5~~-6-9--10-9-6-6h9p6-5~~1/5--------------------------------|
G|---------------------------------------------------------------------------|
D|---------------------------------------------------------------------------|
A|---------------------------------------------------------------------------|
E|---------------------------------------------------------------------------|

Bass verse riff

e|---------------------------------------------------------------------------|
B|---------------------------------------------------------------------------|
G|---------------------------------------------------------------------------|
D|---------------------------------------------------------------------------|
A|---3---5-6-7---------------------------------------------------------------|
E|-5------------0-3-4---X16--------------------------------------------------|

Chorus
[ Tab from: http://www.guitartabs.cc/tabs/m/muse/get_a_grip_tab.html ]
e|---------------------------------------------------------------------------|
B|-6-------6-------6-------6-------6-------6-------6-------6-----------------|
G|---7---7---7---7---7---7---7---7---5---5---5---5---5---5---5---5-----------|
D|-----7-------7-------7-------7-------7-------7-------7-------7-------------|
A|---------------------------------------------------------------------------|
E|---------------------------------------------------------------------------|

e|---------------------------------------------------------------------------|
B|-5-------5-------5------5-------5-------5-------5-------5------------------|
G|---5---5---5---5---5--5---5---5---4---4---4---4---4---4---4---4------------|
D|-----5-------5------5-------5-------6-------6-------6-------6--------------|
A|---------------------------------------------------------------------------|
E|---------------------------------------------------------------------------|

mosh riff

e|---------------------------------------------------------------------------|
B|---------------------------------------------------------------------------|
G|---------------------------------------------------------------------------|
D|---------------------------------------------------------------------------|
A|-7---------7-------7-------------------------------------------------------|
E|---3-5-3-0---3-5-3---------------------------------------------------------|
Comments