Muse - Futurism Chords & Tabs

 

Futurism Chords & Tabs

Muse Chords & Tabs

Version: 1 Type: Bass Tab 0 ratings
1 star 2 stars 3 stars 4 stars 5 stars
comments

Futurism Bass Tab

Band - Muse
Song - Futurism

Verse
G:--0-0-12-0-7-0-6-7-----7-------6-------4---2-3-0-0-----3--------2----|
D:-------------------0-0---0----------------------------------0-0---0--|
A:---------------------------4-4---4-2-2---2---------1-1---1-----------|
E:---------------------------------------------------------------------|
[ Tab from: http://www.guitartabs.cc/tabs/m/muse/futurism_btab.html ]
Chorus
G:--00--0---22--2--24--5-5-5-5-5-5-5-5-4-4-4-4-4-4-4-4-----------------|
D:---------------------------------------------------------------------|
A:---------------------------------------------------------------------|
E:---------------------------------------------------------------------|

Outro
G:--00--0---22--2--24--5-\-4-------------------------------------------|
D:---------------------------------------------------------------------|
A:---------------------------------------------------------------------|
E:---------------------------------------------------------------------|


Verse:  x8
Chorus: x2
Verse:  x4
Chorus: x4
Outro
Comments