Muse - Forced In Chords & Tabs

 

Forced In Chords & Tabs

Muse Chords & Tabs

Version: 1 Type: Bass Tab

Forced In Bass Tab

   
Forced In

MUSE

Drop D Tuning    D A D G

G----------||
D----------||
A ---------||
D--7----5--||

G----------||
D----------||
A----------||
D--3----4--||

G------------||
D------------||
A------------||
D--33----44--||
[ Tab from: http://www.guitartabs.cc/tabs/m/muse/forced_in_btab.html ]
G----------||
D----------||
A----------||
D--7----6--||

G------------------------||
D------------------------||
A------------------------||
D--33----33----33----44--||

G------------||
D------------||
A------------||
D--33----44--||

This should give you the complete outline for this song...