Muse - Fillip Chords & Tabs

 

Fillip Chords & Tabs

Muse Chords & Tabs

Version: 2 Type: Tab 0 ratings
1 star 2 stars 3 stars 4 stars 5 stars
comments

Fillip Tab

   
muse, fillip.
Tabbed by gary, jubilee2@bolt.com.
  
cave

Intro
riff1      1+2+3+4
G------------7---------------
D--6-6-6-6-6-----------------  x4
riff2
G------------9^10v9---------------
D--6-6-6-6-6---------------------- X3

riff3
B-------------6------------
G--------------7-7--------- x9  (if u have it a pitchshifter use it on
D--6-6-6-6-6-6--7----------      the last 4, or play it up an octave)


bass for verse and riff 3

bass riff 1
D------3---------
A-5-5-5-5----3-4-
E--------3-4-----


Verse
[ Tab from: http://www.guitartabs.cc/tabs/m/muse/fillip_tab_ver_2.html ]
bass riff1x 4


|Gm|Gm|Gm|Gm|

bass2

D---------------------------------5-5-5-5-3-3-3-3-------
A-------------------------3-3-3-3-----------------7-7-7-7-6-6-6-6-
E-3-3-3-3-5-5-5-5-6-6-6-6-------------------------------


Riff3+bass2x4

Bass riff2x4

Bass3 |Gm|x4


chorus

|Dm|D|Gm|Gm|X2

riff2x3
riff3x9

verse arrangment as before
|B|Bb|D|G7| 


:: Ultimate Guitar Archive :: 
http://www.ultimate-guitar.com 



Comments