Muse - Fillip Chords & Tabs

 

Fillip Chords & Tabs

Muse Chords & Tabs

Version: 2 Type: Bass Tab 0 ratings
1 star 2 stars 3 stars 4 stars 5 stars
comments

Fillip Bass Tab

BAND:- MUSE
SONG:- FILLIP
ALBUM:- SHOBIZ
tabbed by:- scareyuk

intro
g------------------------------------------------------------------------------------
d------------------------------------------------------------------------------------
a------------------------------------------------------------------------------------
e-333-333-333-333-33-33-33-33-33-33-33-----------------------------------------------

verse riff
g------------------------------------------------------------------------------------
d-----------------2--------2---------------------------------------------------------
a-22-0-2-5-22-0-2---22-0-2---5-33-2-0-2----------------------------------------------
e------------------------------------------------------------------------------------
[ Tab from: http://www.guitartabs.cc/tabs/m/muse/fillip_btab_ver_2.html ]
chorus riff
g------------------------------------------------------------------------------------
d---------55555555-33333333-44444444-------------------------------------------------
a-33333333---------------------------------------------------------------------------
e------------------------------------------------------------------------------------

play into
then vers x2
then chorusx2
then versx2
then chorus x2

x12
g---------|--------------------------------------------------------------------------
d---------|--------------------------------------------------------------------------
a-5-2-3-4-|-5555555555555555---------------------------------------------------------
e---------|--------------------------------------------------------------------------

then verse again x2
chorus x2
END
Comments