Muse - Fillip Chords & Tabs

 

Fillip Chords & Tabs

Muse Chords & Tabs

Version: 1 Type: Bass Tab 0 ratings
1 star 2 stars 3 stars 4 stars 5 stars
comments

Fillip Bass Tab

Muse
"Fillip"
Showbiz


Intro
G-|-----------------|------------------|
D-|-----------------|------------------|
A-|-----------------|------------------|
E-|--------3--3--3--|---------3--3--3--|


Verse
G-|-----------------|------------------|
D-|--9-------/12----|-9-9-------/14----|
A-|----12-11--------|-----12-11--------|
E-|-----------------|------------------|

G-|-------------------|------------------|
D-|-9-9-------/14-12--|--10-10-9----9----|
A-|-----12-11---------|----------12------|
E-|-------------------|------------------|

[ Tab from: http://www.guitartabs.cc/tabs/m/muse/fillip_btab.html ]
Chorus
G-|------------------|------------------|
D-|------------------|------------------|
A-|------------------|------------------|
E-|--3-3-3-3-3-3-3-3-|-2-2-2-2-2-2-2-2--|

G-|------------------|------------------|
D-|------------------|-2-2-2-2-2-2-2-2--|
A-|------------------|------------------|
E-|--0-0-0-0-0-0-0-0-|------------------|

G-|------------------|------------------|
D-|------------------|------------------|
A-|--3-3-3-3-3-3-3-3-|-5-5-5-5-5-5-5-5--|
E-|------------------|------------------|

G-|------------------|------------------|
D-|--4-4-4-4-4-4-4-3-|------------------|
A-|------------------|------------------|
E-|------------------|-2-2-2-2-2-2-2-2--|
Comments