Muse - Feeling Good Chords & Tabs

 

Feeling Good Chords & Tabs

Muse Chords & Tabs

Version: 4 Type: Tab 0 ratings
1 star 2 stars 3 stars 4 stars 5 stars
comments

Feeling Good Tab

This is a great song by muse!
Muse are the best band in the whole wide world!!
I've only done the intro, i'll tab later, I havn't got enough time at the mo, but
this is better than nothing!

Intro bass line:
I think the bass line goes something like this:

----------------------------------|
----------------------------------|
--5----5-3----3-1----1-0----3-0-3-| Repeat
----------------------------------|

Then about 40 seconds in Matt plays:
[ Tab from: http://www.guitartabs.cc/tabs/m/muse/feeling_good_tab_ver_4.html ]
----------------------------------R
----------------------------------E
----------------------------------P
--5----5-3----3-1----1-0----3-0-3-E
--5----5-3----3-1----1-0----3-0-3-A
--5----5-3----3-1----1-0----3-0-3-T

Then:

--------------------------------------------------------------------------|
--------------------------------------------------------------------------|
-----------------------------5-----5--3-----3--2-----2----5-5-5-5-5--6--7-|
--2-----2--1-----1--0-----0--5-----5--3-----3--2-----2----5-5-5-5-5--6--7-|
--2-----2--1-----1--0-----0--3-----3--1-----1--0-----0----3-3-3-3-3--4--5-|
--2-----2--1-----1--0-----0---------------------------------------------0-|

You can just keep playing this where evers necessary!
If you have any problems e-mail me at in_your_world@hotmail.co.uk
enjoy! hope you like it
Comments