Muse - Falling Away With You Chords & Tabs

 

Falling Away With You Chords & Tabs

Muse Chords & Tabs

Version: 1 Type: Tab 4 ratings
1 star 2 stars 3 stars 4 stars 5 stars
comments

Falling Away With You Tab

   
Artist: Muse
Album: Absolution
Song: Falling away with you

I just had to figure out this song when i heard it because it is a really pretty song
So here is my interpretation of it and im pretty sure its all right

Verse (main bit)


e|-----------------8--8-------7--7------5---5--5---------------------------------------
B|--5----6----8------------------------------------8----6----5--5----------------------
G|----------------------------------------------------------------------4--4----/-5----
D|-----------------7-----7----5---------3------3---------------------------------------
A|--3----5----7------------------------------------7----5----3-----3-------------------
E|----------------------------------------------------------------------3-----4-/-5----


[ Tab from: http://www.guitartabs.cc/tabs/m/muse/falling_away_with_you_tab.html ]
e|-----------------------------------------------
B|--5----3----1--------------------3-/-5----5----
G|-----------------2---2------1------------------
D|-----------------------------------------------
A|--3----2----0-----------------------------3----
E|-----------------1------1----------------------
                                            #


On the last time round play the second bit twice and instead of going to the notes 
with a # underneath go to the chorus

Chorus

e|------------1---------1--------------1----3---------
B|-------2----3----2----3----2----1----1----3----5----
G|-------2----2----2----2----2----2----2----4----5----
D|--2----2----0----2----0----2----2----3----5----5----
A|--2----0---------0---------0----3----3----5----3----
E|--0----------------------------------1----3---------

   Em    A    Dm   A    Dm   A    C?   F    G    C

The notes are obviously strummed alot more than shown, but they are the chords for it 
so just listen to the song for the changes.

All the song is there. I've figured it out so i'll leave it to you guys to figure out 
the timing and what comes where in the song.

Hope you like it and find it of some use.

comments - ducktapeguru@hotmail.com
Comments