Muse - Falling Away With You Chords & Tabs

 

Falling Away With You Chords & Tabs

Muse Chords & Tabs

Version: 1 Type: Bass Tab 0 ratings
1 star 2 stars 3 stars 4 stars 5 stars
comments

Falling Away With You Bass Tab

Song - Falling Away With You
Artist - Muse
Tabber - Zeidrich

Theres actually no bass until the chorus. This is also quite a fast song:

G|-------------------------------------|
D|-----------------14------------------|
A|-12 x32--12 x30-------12 x32--12 x32-|
E|-------------------------------------|
[ Tab from: http://www.guitartabs.cc/tabs/m/muse/falling_away_with_you_btab.html ]
G|------------------    -------------------|
D|-----77------77---    ------77------77---|
A|-0077--770077--77- x2 --0088--880088--88-| x2
E|------------------    -------------------|
   (11th fret)
G|----------------------    -----------------------|
D|-----1111------1111---    ------1010------1010---|
A|-0077----770077----77- x2 --0077----770077----77-| x2
E|----------------------    -----------------------|

G|----------------------    --------------------------|
D|-----1010------1010---    -------99----------99-----|
A|-5588----885588----88- x2 -551010--1010551010--1010-| x2
E|----------------------    --------------------------|

G|----------------------------------|
D|-------1010----------1010---------|
A|---1010----1010--1010----1010-----|
E|-88------------88-------------8---|

Then thats basicly repeated again after the wee guitar bit.
Comments