Muse - Eternally Missed Chords & Tabs

 

Eternally Missed Chords & Tabs

Muse Chords & Tabs

Version: 1 Type: Bass Tab 0 ratings
1 star 2 stars 3 stars 4 stars 5 stars
comments

Eternally Missed Bass Tab

   
---------------------------------------------------------
		Muse - Eternally Missed
	  Tabbed by DTMax - dtmax_@hotmail.com
----------------------------------------------------------


	Intro/Verse
G|--------------------------------------------------|
D|--------------0-0-0-03035-3-3-3-35323-0-0-0-0320--|
A|--0-0-0-03034-----------------------------------3-|
E|--------------------------------------------------|


	Prechorus
G|------------------------------------------------|
D|--------------0-0-0-03035-3-3-3-35323-00000000--|
A|--0-0-0-03034-----------------------------------|
E|------------------------------------------------|


	Chorus
G|----------------------------------------------------|
D|----------------------------------------------------|
A|-3333333333333333-----------------------------------|
E|------------------3333333333333333-0000000000000000-|

[ Tab from: http://www.guitartabs.cc/tabs/m/muse/eternally_missed_btab.html ]
G|----------------------------------------------------|
D|----------------------------------------------------|
A|-3333333333333333-5555555555555555------------------|
E|-----------------------------------3333333333333333-|


	Interlude
G|-------------------------0-0-0-0------------------|
D|---------0-0-0-0-3-3-3-3--------------------------|
A|-3-3-3-3-------------------------3333333333333333-|
E|--------------------------------------------------|


G|----------------------------------------------------|
D|-0000000000000000-3333333333333333-3333333333333333-|
A|----------------------------------------------------|
E|----------------------------------------------------|



-------------------------------------------------------------
			Breakdown
-------------------------------------------------------------


Intro x2
Prechorus
Chorus
Verse x2
Prechorus
Chorus
Verse x2 (Guitar Solo)
Verse x2 (lightly, Interlude)
Interlude
Chorus x2


	Muse rock!!! Have loads of fun!!
Comments