Muse - Emergency Chords & Tabs

 

Emergency Chords & Tabs

Muse Chords & Tabs

Version: 1 Type: Tab 0 ratings
1 star 2 stars 3 stars 4 stars 5 stars
comments

Emergency Tab

   
Band - Muse
Song - Emergency
[ Tab from: http://www.guitartabs.cc/tabs/m/muse/emergency_tab.html ]
E--2---------------|
B--2--------6------|
G--2--------6------|
D--4--------6------|  (x4)
A--4--------4------|
E------------------|
    F#m                D/F#                 E/B        C#aug        A
E-------------------|--------------------|----------------------|--------------------|
B------2---2---2----|-------3---3---3----|------0----------1----|------2---2---2-----|
G----2--2-2-2-2-2-2-|-----2--2-2-2-2-2-2-|----1--1-1-----1--1-1-|----2--2-2-2-2-2-2--|
D---4-4--4---4---4--|----0-0--0---0---0--|---2-2--2-----2-2--2--|---2-2--2---2---2---|
A-------------------|--------------------|--2----------3--------|--0-----------------|
E--2----------------|--2-----------------|----------------------|--------------------|
   C#   A        C#
E-------5----|---------|
B--6----5----|---6~~---|
G--6----6----|---6~~---|
D--6----7----|---6~~---|
A--4----7----|---4~~---|
E-------5----|---------|
 1 :    F#m                       C#
E--9----9----9----9-----|-9---9---9---9----|
B---10---10---10---10---|--9---9---9---9---|
G-----11---11---11---11-|---10--10--10--10-|
D-----------------------|------------------|
A-----------------------|------------------|
E-----------------------|------------------|
  F#m                        D                            C#sus4                C#
E--9----9----9----9-----|-10----10----10----10-----|-9---9---9---9----|-9---9---9---9----|
B---10---10---10---10---|---10----10----10----10---|--9---9---9---9---|--9---9---9---9---|
G-----11---11---11---11-|-----11----11----11----11-|---11--11--11--11-|---10--10--10--10-|   (x3)
D-----------------------|--------------------------|------------------|------------------|
A-----------------------|--------------------------|------------------|------------------|
E-----------------------|--------------------------|------------------|------------------|
 F#m                        D                             Bm                C7dim              C#
E--9----9----9----9-----|-10----10----10----10-----|-7--7--7--7---|-8--8--8--8---|-----------|
B---10---10---10---10---|---10----10----10----10---|--7--7--7--7--|--7--7--7--7--|--6-6-6-6--|
G-----11---11---11---11-|-----11----11----11----11-|---7--7--7--7-|---8--8--8--8-|--6-6-6-6--|
D-----------------------|--------------------------|--------------|--------------|--6-6-6-6--|
A-----------------------|--------------------------|--------------|--------------|--4-4-4-4--|
E-----------------------|--------------------------|--------------|--------------|-----------|

  C#    F#m           D           Bm         C#          F#m
E--------2--4--2-|--2--4--2--I--2--2--2--|-----------|--------2~~---------------|
B--6-6---2--2--2-|--3--3--3--I--4--3--4--|--6--6--6--|--2~~---------------------|
G--6-6---2--2--2-|--2--2--2--I--3--2--3--|--6--6--6--|--2~~---------------------|
D--6-6---4--4--4-|--0--0--0--I--3--4--3--|--6--6--6--|--4~~---------------------|
A--4-4-----------|-----------------------|--2--2--2--|--4--4--4----4~~----------|
E----------------|-----------------------|-----------|-------------------2~~----|
Comments