Muse - Dead Star Chords & Tabs

 

Dead Star Chords & Tabs

Muse Chords & Tabs

Version: 3 Type: Tab 0 ratings
1 star 2 stars 3 stars 4 stars 5 stars
comments

Dead Star Tab

   
Muse - Deadstar
Georg Schlegel (Email me for comments RageATM@myday.cc)
Drop D Tuning
nearly 100 % correct!

E-------    ---
B-------    ---
G-13---- X3 --- 
D-12----    ---
A---0-0-    -3*
D-------    ---

* Play this gently by holding finger over the fret to achieve the


E------------------------
B------------------------
G------------------------   X2 dist
D------------------------
A-5-----5-----5------034-
D--0-0---0-0---0--567----

  4x   4x   4x   4x   4x   4x   4x   4x   4x   4x   4x  4x
[ Tab from: http://www.guitartabs.cc/tabs/m/muse/dead_star_tab_ver_3.html ]
E--------------------------------------------------------------
B-6----6----6----6----5----4----3----3----6----8----8----8-----
G--7-7--6-6--5-5--4-4--3-3--3-3--2-2--2-2--7-7--7-7--7-7--7-7--
D---7----7----7----7----5----5----3----4----7----8----9----8---
A--------------------------------------------------------------
D--------------------------------------------------------------

  4x    4x

E------------
B-8-----7----
G--6-6---5-5-
D---8-----7--   distortes & PalMuted
A------------
D------------

Refrain Bb F A 2x      


D       /  3 /
A       1  3 /
D       3  3 0
G       3    2
B            2
E            

Solo coming later!
Comments