Muse - Dark Shines Chords & Tabs

 

Dark Shines Chords & Tabs

Muse Chords & Tabs

Version: 4 Type: Tab 0 ratings
1 star 2 stars 3 stars 4 stars 5 stars
comments

Dark Shines Tab

I haven't seen these guys live or anything, so I'm not sure where he is on the neck,
but this is the easiest way I've found to play this song.  I'm almost positive that
each and every note here is perfect, so enjoy!

G|------------------------------------------------------------|
D|------------------------------------------------------------|
A|5-7-8---5--8----5-7-8---5--8--0h(7)-4-0-7--4--0h(7)-4-0-7--4|
E|------5-------5-------5-------------------------------------|

G|--------------------------------------2------2----------------|
D|--5-------5-------3-------3---------2-----2-------------------|
A|5---5--------5--5---5-0------5----0-----0---------0-2-4---0--4|
E|------6-3---------------1-------0---------------0-------0-----|

G|-------------------------------------------------------------------------|
D|-------------------------------------------------------------------------|
A|0-0------0-0------0-0------0-0---------------1-1------0-0------12-0---12\|
E|------------------------------------3-3----------------------------------|

G|------------------------------------------------------------|
D|------------------------------------------------------------|
A|5-7-8---5--8----5-7-8---5--8--0h(7)-4-0-7--4--0h(7)-4-0-7--4|
E|------5-------5-------5-------------------------------------|

G|--------------------------------------2------2-----------------|
D|--5-------5-------3-------3---------2-----2---------0h2--------|
A|5---5--------5--5---5-0------5----0-----0-------0-0-----0-0/12\|
E|------6-3---------------1-------0------------------------------|

G|----0h2------------0h2---------------------------------------|
D|0-0-----0-0/12\0-0-----0-0/12\-----0h2------------0h2--------|
A|-------------------------------0-0-----0-0/12\0-0-----0-0/12\|
E|-------------------------------------------------------------|

G|------------------------------------------------------------|
D|-------------------1h3------------0h2------------0h2--------|
A|----3h5--------1-1-----1-1/13\0-0-----0-0/12\0-0-----0-0/12\|
E|3-3-----3-3/15\---------------------------------------------|

G|------------------------------------------------------------|
D|------------------------------------------------------------|
A|5-7-8---5--8----5-7-8---5--8--0h(7)-4-0-7--4--0h(7)-4-0-7--4|
E|------5-------5-------5-------------------------------------|

G|--------------------------------------2------2----------------|
D|--5-------5-------3-------3---------2-----2-------------------|
A|5---5--------5--5---5-0------5----0-----0---------0-2-4---0--4|
E|------6-3---------------1-------0---------------0-------0-----|

G|-------------------------------------------------------------------------|
D|-------------------------------------------------------------------------|
A|0-0------0-0------0-0------0-0---------------1-1------0-0------12-0---12\|
E|------------------------------------3-3----------------------------------|

G|------------------------------------------------------------|
D|------------------------------------------------------------|
A|5-7-8---5--8----5-7-8---5--8--0h(7)-4-0-7--4--0h(7)-4-0-7--4|
E|------5-------5-------5-------------------------------------|

G|--------------------------------------2------2-----------------|
D|--5-------5-------3-------3---------2-----2---------0h2--------|
A|5---5--------5--5---5-0------5----0-----0-------0-0-----0-0/12\|
E|------6-3---------------1-------0------------------------------|

G|----0h2------------0h2---------------------------------------|
D|0-0-----0-0/12\0-0-----0-0/12\-----0h2------------0h2--------|
A|-------------------------------0-0-----0-0/12\0-0-----0-0/12\|
E|-------------------------------------------------------------|
[ Tab from: http://www.guitartabs.cc/tabs/m/muse/dark_shines_tab_ver_4.html ]
G|------------------------------------------------------------|
D|-------------------1h3------------0h2------------0h2--------|
A|----3h5--------1-1-----1-1/13\0-0-----0-0/12\0-0-----0-0/12\|
E|3-3-----3-3/15\---------------------------------------------|

G|----0h2------------0h2---------------------------------------|
D|0-0-----0-0/12\0-0-----0-0/12\-----0h2------------0h2--------|
A|-------------------------------0-0-----0-0/12\0-0-----0-0/12\|
E|-------------------------------------------------------------|

G|------------------------------------------------------------|
D|-------------------1h3------------0h2------------0h2--------|
A|----3h5--------1-1-----1-1/13\0-0-----0-0/12\0-0-----0-0/12\|
E|3-3-----3-3/15\---------------------------------------------|

G|--------------------------------------------------------|
D|5-------5-----5-------5---------------------------------|
A|--5--------5----5--------5--5-7-8---5--8----5-7-8---5--8|
E|----6-3-----------6-3-------------5-------5-------5-----|

G|--------------------------------------------------------|
D|5-------5-----5-------5---------------------------------|
A|--5--------5----5--------5--5-7-8---5--8----5-7-8---5--8|
E|----6-3-----------6-3-------------5-------5-------5-----|

G|--------------------------------------------------------|
D|5-------5-----5-------5---------------------------------|
A|--5--------5----5--------5--5-7-8---5--8----5-7-8---5--8|
E|----6-3-----------6-3-------------5-------5-------5-----|

G|------------------------------------2-----2-------2-------|
D|6-------6-----6-------6-------2--------2----2--------2----|
A|--8-5------8----8-5------8--0---4-0-----------4-0---------|
E|------7-------------7-------------------------------------|

G|----------------------------------------------|
D|5--------5------------------------------------|
A|------------------5-7-8---5--8----5-7-8---5--8|
E|--3--------3------------5-------5-------5-----|

G|----------------------------------------------|
D|5--------5------------------------------------|
A|------------------5-7-8---5--8----5-7-8---5--8|
E|--3--------3------------5-------5-------5-----|

G|----------------------------------------------|
D|5--------5------------------------------------|
A|------------------5-7-8---5--8----5-7-8---5--8|
E|--3--------3------------5-------5-------5-----|

G|----------------------------------------------|
D|6--------6--------7---------------------------|
A|--8--------8----------------------------------|
E|----------------------------------------------|

G|----0h2------------0h2---------------------------------------|
D|0-0-----0-0/12\0-0-----0-0/12\-----0h2------------0h2--------|
A|-------------------------------0-0-----0-0/12\0-0-----0-0/12\|
E|-------------------------------------------------------------|

G|------------------------------------------------------------|
D|-------------------1h3------------0h2------------0h2--------|
A|----3h5--------1-1-----1-1/13\0-0-----0-0/12\0-0-----0-0/12\|
E|3-3-----3-3/15\---------------------------------------------|

G|----0h2------------0h2---------------------------------------|
D|0-0-----0-0/12\0-0-----0-0/12\-----0h2------------0h2--------|
A|-------------------------------0-0-----0-0/12\0-0-----0-0/12\|
E|-------------------------------------------------------------|

G|------------------------------------------------------------|
D|-------------------1h3------------0h2------------0h2--------|
A|----3h5--------1-1-----1-1/13\0-0-----0-0/12\0-0-----0-0/12\|
E|3-3-----3-3/15\---------------------------------------------|

G|-------------------------------------------|
D|----0h2-----0h2-----0h2-----0h2-----0h2---0|
A|0-0-----0-0-----0-0-----0-0-----0-0-----0--|
E|-------------------------------------------|

PHEW!
Comments