Muse - Citizen Erased Chords & Tabs

 

Muse Chords & Tabs

Version: 3 Type: Tab 0 ratings
1 star 2 stars 3 stars 4 stars 5 stars
comments

Citizen Erased Tab

This is the first bit (cool bit) that everyone has got wrong so here it is(I think!)

--------------------------------------------------------------------------------
--------------------------------------------------------------------------------
--------------------------------------------------------------------------------
--------------------------------------------------------------------------------
-0-0-12-0-12-12-0-12--0-0-12-0-12-12-0-12-0-12--0-0-10-0-10-10-0-10-10-0-10--0-0
-0-0-12-0-12-12-0-12--0-0-12-0-12-12-0-12-0-12--0-0-10-0-10-10-0-10-10-0-10--0-0

--------------------------------------------------------------------------------
--------------------------------------------------------------------------------
--------------------------------------------------------------------------------
--------------------------------------------------------------------------------
-10-0-10------------------------------------------------------------------------
-10-0-10------------------------------------------------------------------------
[ Tab from: http://www.guitartabs.cc/tabs/m/muse/citizen_erased_tab_ver_3.html ]
--------------------------------------------------------------------------------
--------------------------------------------------------------------------------
--------------------------------------------------------------------------------
--------------------------------------------------------------------------------
-0-0-12-0-12-12-0-12-12-0-12--0-0-10-0-10-10-0-10-10-0-10--0-0-8-0-8-8-0-8-8-0-8
-0-0-12-0-12-12-0-12-12-0-12--0-0-10-0-10-10-0-10-10-0-10--0-0-8-0-8-8-0-8-8-0-8

--------------------------------------------------------------------------------
--------------------------------------------------------------------------------
--------------------------------------------------------------------------------
--------------------------------------------------------------------------------
0-0-7-0-7-7-0-7-7-0-------------------------------------------------------------
0-0-7-0-7-7-0-7-7-0-------------------------------------------------------------

Go easy on me its my first tab!
Any questions coments e-mail me @ donkeymagician@hotmail.com
Comments