Muse - Citizen Erased Chords & Tabs

 

Citizen Erased Chords & Tabs

Muse Chords & Tabs

Version: 1 Type: Tab 1 rating
1 star 2 stars 3 stars 4 stars 5 stars
comments

Citizen Erased Tab

   
MUSE - Citizen Erased

From Origin Of Symmetry

This is the first song I have tabbed, but it should (hopefully) be correct. 
Any comments to dannywhite100@hotmail.com please. The song is very long,
over 7 minutes, and so it is quite a complicated tab.

Tuning as standard, except 6th string, which should be changed to A.



For timing of song, listen to the song itself please.

Key

h    = hammer on
p    = pull off
sb   = half string bend
sbf  = full string bend
sbqr = quarter string bend and return





Intro

All the fretted notes played in this intro are actually harmonics, meaning that the strings 
are depressed very slightly above the fret itself to produce a much higher note.
Hard to do at first, but can be done with practice.


e|------------------------|------------------------
B|------------------------|------------------------
G|------------------------|------------------------
D|------------------------|------------------------
A|-----2-0-2--0-2-0-2-0-2-|-----2-0-2--0-2-0-2-0-2-
E|-0-0--------------------|-0-0--------------------
								
e|------------------------|------------------------
B|------------------------|------------------------
G|------------------------|------------------------
D|------------------------|------------------------
A|-----3-0-3--0-3-0-3-0-3-|-----3-0-3--0-3-0-3-0-3-
E|-0-0--------------------|-0-0--------------------

e|------------------------|------------------------
B|------------------------|------------------------
G|------------------------|------------------------
D|------------------------|------------------------
A|-----2-0-2--0-2-0-2-0-2-|-----2-0-2--0-2-0-2-0-2-
E|-0-0--------------------|-0-0--------------------
								
e|------------------------|------------------------
B|------------------------|------------------------
G|------------------------|------------------------
D|------------------------|------------------------
A|-----3-0-3--0-3-0-3-0-3-|-----3-0-3--------------
E|-0-0--------------------|-0-0--------------------





Riff 1

e|------------------------------|------------------------------
B|------------------------------|------------------------------
G|------------------------------|------------------------------
D|------------------------------|------------------------------
A|-0-0-12-0-12-12---12-12-0-12--|-0-0-10-0-10-10---10-10-0-10--
E|-0-0-12-0-12-12-0-12-12-0-12--|-0-0-10-0-10-10-0-10-10-0-10--
									x2
e|------------------------------|------------------------------
B|------------------------------|------------------------------
G|------------------------------|------------------------------
D|------------------------------|------------------------------
A|-0-0--8-0--8--8----8--8-0--8--|-0-0--7-0--7--7----7--7-0--7--
E|-0-0--8-0--8--8-0--8--8-0--8--|-0-0--7-0--7--7-0--7--7-0--7--





Riff 2

e|-------------------------------------------|-------------------------------------------
B|-------------------------------------------|-------------------------------------------
G|-------------------------------------------|-------------------------------------------
D|-------------------------------------------|-------------------------------------------
A|-0-12-12-0-12-12-0-12-0-12-12-0-12-0-12-12-|-0-14-14-0-14-14-0-14-0-14-14-0-14-0-14-0--
E|-------------------------------------------|-------------------------------------------

e|-------------------------------------------|-------------------------------------------
B|-------------------------------------------|-------------------------------------------
G|-------------------------------------------|-------------------------------------------
D|-------------------------------------------|-------------------------------------------
A|-0-15-15-0-15-15-0-15-0-15-15-0-15-0-15-0--|-0-17-17-0-17-17-0-17-0-17-17-0-17-0-17-0--
E|-------------------------------------------|-------------------------------------------

e|-------------------------------------------|-------------------------------------------------
B|-------------------------------------------|-------------------------------------------------
G|-------------------------------------------|-------------------------------------------------
D|-------------------------------------------|-------------------------------------------------
A|-0-15-15-0-15-15-0-15-0-15-15-0-15-0-15-0--|-12-14-14-12-14-14-12-14-12-14-14-12-14-12-14-12-
E|-------------------------------------------|-------------------------------------------------

e|-------------------------------------------|-------------------------------------------
B|-------------------------------------------|-------------------------------------------
G|-------------------------------------------|-------------------------------------------
D|-------------------------------------------|-------------------------------------------
A|-0-12-12-0-12-12-0-12-0-12-12-0-12-0-12p10-|-0-11-11-0-11-11-0-11-0-11-11-0-11-0-11-0--
E|-------------------------------------------|-------------------------------------------




Riff 3

e|-------------------------|-------------------------
B|-------------------------|-------------------------
G|-----2-2-2-2-2-2-2-2-2-2-|-----4-4-4-4-4-4-4-4-4-4-
D|-------------------------|-------------------------
A|-----0-0-0-0-0-0-0-0-0-0-|-----2-2-2-2-2-2-2-2-2-2-
E|-0-0---------------------|-0-0---------------------
								x2				
e|-------------------------|-------------------------
B|-------------------------|-------------------------
G|-----5-5-5-5-5-5-5-5-5-5-|-----7-7-7-7-7-7-7-7-7-7-
D|-------------------------|-------------------------
A|-----3-3-3-3-3-3-3-3-3-3-|-----5-5-5-5-5-5-5-5-5-5-
E|-0-0---------------------|-0-0---------------------





Bridge 1

e|---------------------------------|-------------------------------------
B|---------------------------------|-------------------------------------
G|-----------------5-5-5-5-5-5-5-5-|-------------------------------------
D|-7-7-7-7-7-7-7-7-5-5-5-5-5-5-5-5-|-6-6-6-6-6-6-6-6-7-7-7-7--9--9--9--9-
A|-8-8-8-8-8-8-8-8-3-3-3-3-3-3-3-3-|-7-7-7-7-7-7-7-7-0-0-0-0-10-10-10-10-
E|-8-8-8-8-8-8-8-8-3-3-3-3-3-3-3-3-|-7-7-7-7-7-7-7-7-0-0-0-0-10-10-10-10-

e|-----------------------------------------|---------------------------------
B|-----------------------------------------|---------------------------------
G|-10-10-10-10-10-10-10-10-5-5-5-5-5-5-5-5-|---------------------------------
D|-10-10-10-10-10-10-10-10-5-5-5-5-5-5-5-5-|-9-9-9-9-9-9-9-9-9-9-9-9-9-9-9-9-
A|--8--8--8--8--8--8--8--8-3-3-3-3-3-3-3-3-|-7-7-7-7-7-7-7-7-7-7-7-7-7-7-7-7-
E|--8--8--8--8--8--8--8--8-3-3-3-3-3-3-3-3-|-7-7-7-7-7-7-7-7-7-7-7-7-7-7-7-7-




Chorus

e|---------1---------------0-------|---------0-----------0-------0---
B|-----1-------1-------1-------1---|-----0-------0-----1---1---1---1-
G|---2---2---2---2---0---0---0---0-|---1---1---1---1-2-------0-------
D|-3---------------2---------------|-2-------------------------------
A|---------------------------------|---------------------------------
E|---------------------------------|---------------------------------


e|---------1---------------0-------|---------0-----------0-------0---
B|-----1-------1-------1-------1---|-----0-------0-----0---0---0---0-
G|---2---2---2---2---0---0---0---0-|---1---1---1---1-2-------1-------
D|-3---------------2---------------|-2-------------------------------
A|---------------------------------|---------------------------------
E|---------------------------------|---------------------------------


e|---------1---------------0-------|---------0-----------0-------0---
B|-----1-------1-------1-------1---|-----0-------0-----1---1---1---1-
G|---2---2---2---2---0---0---0---0-|---1---1---1---1-2-------0-------
D|-3---------------2---------------|-2-------------------------------
A|---------------------------------|---------------------------------
E|---------------------------------|---------------------------------


e|---------1---------------0-------|---------------------------------
B|-----1-------1-------1-------1---|---------------------------------
G|---2---2---2---2---0---0---0---0-|---------------------------------
D|-3---------------2---------------|-9-------------------------------
A|---------------------------------|-7-------------------------------
E|---------------------------------|-7-------------------------------




Bridge 2

e|-------------------------|-------------------------
B|-------------------------|-------------------------
G|-------------------------|-------------------------
D|-7-----------------------|-------------------------
A|-------------------------|-------------------------
E|-------------------------|-------------------------

e|-------------------------|-------------------------
B|-------------------------|-------------------------
G|-------------------------|-----------------------2-
D|-------------------------|-9-----------------------
A|-------------------------|-------------------------
E|-------------------------|-------------------------
[ Tab from: http://www.guitartabs.cc/tabs/m/muse/citizen_erased_tab.html ]
e|---5-----8-----7-----6-----5-----|-----5-----4-----3---------3-----
B|-----5-----5-----5-----5-----5---|---3---3-----3-----3-----3---3---
G|-5-----5-----5-----5-----5-------|-5-------5-----5-----5-4---------
D|---------------------------------|---------------------------------
A|---------------------------------|---------------------------------
E|---------------------------------|---------------------------------

e|-----3-----2-----1-----2-----3---|-----4-------4-------------------
B|---1---1-----1-----1-----1-----1-|---3---3---3---3-----3-----3-----
G|-2-------2-----2-----2-----2-----|-4-------4---------4-----4-----4-
D|---------------------------------|-----------------3-----3-----2---
A|---------------------------------|---------------------------------
E|---------------------------------|---------------------------------

e|-----5-----6-----7-----8-----7---|-----7-----8-----9-----10-----9---
B|---5---5-----5-----5-----5-----0-|---8---8-----8-----8------8-----0-
G|-5-------5-----5-----5-----5-----|-7-------7-----7-----7------7-----
D|---------------------------------|----------------------------------
A|---------------------------------|----------------------------------
E|---------------------------------|----------------------------------

e|-------8-------9-------10-------11-------12----|-------12------------------------
B|----10---10------10-------10-------10-------10-|-----9---------------------------
G|-10---------10------10-------10-------10-------|---9-----------------------------
D|-----------------------------------------------|-9-------------------------------
A|-----------------------------------------------|---------------------------------
E|-----------------------------------------------|---------------------------------




Bridge 3

e|---------------------------------
B|-----------------0-0-0-0-0-0-0-0-
G|-1-1-1-1-1-1-1-1-1-1-1-1-1-1-1-1-
D|-2-2-2-2-2-2-2-2-2-2-2-2-2-2-2-2-
A|---------2-2-2-2-2-2-2-2-2-2-2-2-
E|---------------------------------




Riff 4

As with Intro, all fretted notes are harmonics

e|------------------------|------------------------
B|------------------------|------------------------
G|------------------------|------------------------
D|------------------------|------------------------
A|-----2-0-2--0-2-0-2-0-2-|-----2-0-2--0-2-0-2-0-2-
E|-0-0--------------------|-0-0--------------------
								
e|------------------------|------------------------
B|------------------------|------------------------
G|------------------------|------------------------
D|------------------------|------------------------
A|-----3-0-3--0-3-0-3-0-3-|-------3-0--------------
E|-0-0--------------------|-12-12-----5s19s5s15s5--

e|------------------------|------------------------
B|------------------------|------------------------
G|------------------------|------------------------
D|------------------------|------------------------
A|-----2-0-2--0-2-0-2-0-2-|-----2-0-2--0-2-0-2-0-2-
E|-0-0--------------------|-0-0--------------------
								
e|------------------------|------------------------
B|------------------------|------------------------
G|------------------------|------------------------
D|------------------------|------------------------
A|-----3-0-3--0-3-0-3-0-3-|------------------------
E|-0-0--------------------|-0-0--------------------





Bridge 4


e|-------------------------|-------------------------
B|-------------------------|-------------------------
G|-------------------------|-------------------------
D|-------------------------|-------------------------
A|-------------------------|-------------------------
E|-------------------------|-------------------------

e|-------------------------|-------------------------
B|-----12sb----------------|-------------------------
G|-------------------9sb---|---11sb-------------13sb-
D|-------------------------|-------------------------
A|-------------------------|-------------------------
E|-------------------------|-------------------------

e|--------------------------------------------------|-------------------------------------------
B|--------------------------------------------------|-------------------------------------------
G|-13-----13-13-14-14-14-14-14-14-16-16-16-16-16-16-|-16-16-16-16sb----19-19-19-19sb---------17-
D|--------------------------------------------------|-------------------------------------------
A|--------------------------------------------------|-------------------------------------------
E|--------------------------------------------------|-------------------------------------------

e|-------------------------|-------------------------
B|-------------------------|-------------------------
G|-16h17p16p14-14-----21sb-|------------23sb---------
D|-------------------------|-------------------------
A|-------------------------|-------------------------
E|-------------------------|-------------------------

e|-------------------------|-------------------------
B|-20p17-20-20-20sbf-------|-------------------------
G|-------------------------|-------------------------
D|-------------------------|-------------------------
A|-------------------------|-------------------------
E|-------------------------|-------------------------

e|-------------------------|-------------------------
B|-12sbqr------------------|-------------------------
G|-------------------------|-------------------------
D|-------------------------|-9-----------------------
A|-------------------------|-9-----------------------
E|-------------------------|-7-----------------------

e|-------------------------|-------------------------
B|-------------------------|-------------------------
G|-2----------------2h4----|-4----------------0--4sb-
D|-----------------------0-|-------------------------
A|-------------------------|-------------------------
E|-------------------------|-------------------------

e|-------------------------|-0-----------------------
B|-----------------------0-|-------------------------
G|---------------2-----1---|-------------------------
D|-------------------------|--------------------2h3--
A|-------------------------|-------------------------
E|-------------------------|-------------------------


e|-------------------------|-------------------------
B|-------------------------|-------------------------
G|-2----------------2h4----|-4----------------0--4sb-
D|-----------------------0-|-------------------------
A|-------------------------|-------------------------
E|-------------------------|-------------------------

e|-------------------------|-0-----------------------
B|-----------------------0-|-------------------------
G|---------------2-----1---|-------------------------
D|-------------------------|--------------------2h3--
A|-------------------------|-------------------------
E|-------------------------|-------------------------

e|-0-----------------------
B|-------------------------
G|---------------------4h5-
D|----------------1h2------
A|-------------------------
E|-------------------------



Riff 5


e|-0-------0-------0-------0-------|-0-------0-------0-------0-------
B|---5---5---5---5---5---5---5---5-|---5---5---5---5---3---3---3---3-
G|-----5-------5-------5-------5---|-----5-------5-------4-------4---
D|---------------------------------|---------------------------------
A|---------------------------------|---------------------------------
E|---------------------------------|---------------------------------


e|-0-------0-------0-------0-------|-0-------------------------------
B|---3---3---3---3---1---1---1---0-|---------------------------------
G|-----4-------4-------2-------1---|---------------------------------
D|---------------------------------|---------------------------------
A|---------------------------------|---------------------------------
E|---------------------------------|---------------------------------


e|-0-------0-------0-------0-------|-0-------0-------0-------0-------
B|---5---5---5---5---5---5---5---5-|---5---5---5---5---3---3---3---3-
G|-----5-------5-------5-------5---|-----5-------5-------4-------4---
D|---------------------------------|---------------------------------
A|---------------------------------|---------------------------------
E|---------------------------------|---------------------------------



e|-0-------0-----------------------|---------------------------------
B|---1-------1---------------1-----|---------------------------------
G|-----0-------0-------------0-----|---------------------------------
D|-------2-------2------2----------|---------------------------------
A|-----------------3---------------|---------------------------------
E|---------------------------------|---------------------------------


e|---------------------------------|---------------------------------
B|-1-------------------------------|---------------------------------
G|-0-------------------------------|---------------------------------
D|-2-------------------------------|---------------------------------
A|-3-------------------------------|---------------------------------
E|---------------------------------|---------------------------------

And then piano bit at the end...



Anyway, that's it. I'll try and simplify the order a bit:

Intro
Riff 1
Riff 2		
Riff 3
Bridge 1
Chorus
Bridge 2
Riff 1
Riff 2
Riff 3
Bridge 1
Chorus
Bridge 2
Bridge 3
Riff 4
Bridge 4
Riff 5
Piano bit (which I haven't tabbed)




Comments