Muse - Cave Chords & Tabs

 

Muse Chords & Tabs

Version: 5 Type: Bass Tab 0 ratings
1 star 2 stars 3 stars 4 stars 5 stars
comments

Cave Bass Tab

   
Band: Muse
Song: Cave
Album: The Showbiz (1999)
Bassist: Chris Wolstenholme
Tuning: Standard

Intro:

G|------------------------------57775777|
D|00000---00000---00000---00000---------|
A|--------------------------------------|
E|--------------------------------------|

G|----------------|    |--------57775777|
D|000-3-0---------|    |000-3-0---------|
A|------------3-4-|    |----------------|
E|--------4-5-----| x7 |----------------|

Verse:

G|----------------|   
D|000-3-0---------|   
A|------------3-4-|    
E|--------4-5-----| x4
                                                                    v
G|---------------------------------------12--------10-------9-------7~--|
D|----5-------7-------8-------10----------------------------------------|
A|---------------------------------10-10----10-8-8----8-7-7---7-6-6-----|
E|3-3---3-5-5---5-6-6---6-8-8----8--------------------------------------|

G|----------------|    |--------57775777|
D|000-3-0---------|    |000-3-0---------|
A|------------3-4-|    |----------------|
E|--------4-5-----| x3 |----------------|

G|----------------|   
D|000-3-0---------|   
A|------------3-4-|    
E|--------4-5-----| x4

G|---------------------------------------12--------10-------9-----888-|
D|----5-------7-------8-------10--------------------------------------|
A|---------------------------------10-10----10-8-8----8-7-7---7-6-----|
E|3-3---3-5-5---5-6-6---6-8-8----8------------------------------------|

Chorus:

G|--------|--------|--------|--------|
D|0000000-|--------|--------|--------|
A|--------|--------|--------|--------|
E|-------2|22222222|33333333|33333333| x4

Pre-verse: 

G|------------------------------57775777|
D|00000---00000---00000---00000---------|
A|--------------------------------------|
E|--------------------------------------|

G|----------------|    |--------57775777|
D|000-3-0---------|    |000-3-0---------|
A|------------3-4-|    |----------------|
E|--------4-5-----| x4 |----------------|

Verse:
[ Tab from: http://www.guitartabs.cc/tabs/m/muse/cave_btab_ver_5.html ]
G|----------------|   
D|000-3-0---------|   
A|------------3-4-|    
E|--------4-5-----| x4
                                                                    v
G|---------------------------------------12--------10-------9-------7~--|
D|----5-------7-------8-------10----------------------------------------|
A|---------------------------------10-10----10-8-8----8-7-7---7-6-6-----|
E|3-3---3-5-5---5-6-6---6-8-8----8--------------------------------------|

G|----------------|    |--------57775777|
D|000-3-0---------|    |000-3-0---------|
A|------------3-4-|    |----------------|
E|--------4-5-----| x3 |----------------|

G|----------------|    |----------------|
D|000-3-0---------|    |000-3-0-0-0-0-0-|  
A|------------3-4-|    |----------------|
E|--------4-5-----| x3 |----------------|

G|---------------------------------------12--------10-------9-----888-|
D|----5-------7-------8-------10--------------------------------------|
A|---------------------------------10-10----10-8-8----8-7-7---7-6-----|
E|3-3---3-5-5---5-6-6---6-8-8----8------------------------------------|

Chorus:

G|--------|--------|--------|--------|
D|0000000-|--------|--------|--------|
A|--------|--------|--------|--------|
E|-------2|22222222|33333333|33333333| x4

Bridge:

G|--------|  Play zeros till 3:45
D|0-------| and let last note ring
A|--------| 
E|--------|  

G|--------|    |--------| 
D|00000000|    |000012\-| There's twelwe
A|--------|    |--------|
E|--------| x7 |--------|

Ending:

G|-------------------------------------------------------------------|
D|----------------------------------------------6\-------------------|
A|2--2--2-2-2-222-1--1--1-1-11111-0--0/(12)\-------------------------|
E|-------------------------------------------44----4-3--3--3-3-33333-|

G|----------------------------------------------------------------------|
D|----------------------------------------------6\----------------------|
A|2--2--2-2-22222-1--1--1-1-11111-0--0/(12)\----------------------345~--|
E|-------------------------------------------44----4-3--3--3-3-333------|

Hope that You'll find this tab useful. Please rate and check out other
MUSE tabs tabbed by me.                                        

/  slide up
\  slide down
h  hammer-on
p  pull-off
~  let ring
v  vibrato
Comments