Muse - Bliss Chords & Tabs

 

Bliss Chords & Tabs

Muse Chords & Tabs

Version: 2 Type: Tab 0 ratings
1 star 2 stars 3 stars 4 stars 5 stars
comments

Bliss Tab

intro:
E------11--15-11----------10--13-10----
B----13--12-----13------11--11-----11--
G--12-------------12--10-------------10

E-----8-11-8
B----9-9----
G--10------- and then the first one again.im am sure you all know the rhythm.
[ Tab from: http://www.guitartabs.cc/tabs/m/muse/bliss_tab_ver_2.html ]
Pre-Verse:
|-------------------------------------------|
|-------------------------------------------|
|--9-9-9-9-xxx-7-7-xxxx-9-9-xx--------------|
|--9-9-9-9-xxx-7-7-xxxx-9-9-xx-7-7-7-7-xxx--|
|--7-7-7-7-xxx-5-5-xxxx-5-5-xx-7-7-7-7-xxx--|
|------------------------------5-5-5-5-xxx--|

Chorus:

|----0----0----|
|----1----2----|
|----0----2----|
|----2----2----|
|----3----0----|
|----0----0----|
Comments