Muse - Bliss Chords & Tabs

 

Bliss Chords & Tabs

Muse Chords & Tabs

Version: 3 Type: Bass Tab 0 ratings
1 star 2 stars 3 stars 4 stars 5 stars
comments

Bliss Bass Tab

-----------------------------------------------------------------
			Bliss - Muse
-----------------------------------------------------------------
Tabbed by: Red-Vex
E-mail: redvex@lycos.it

Comments: should be 100% correct, e-mail me if you disagree :D
          I've not found any other completely satisfactory tabs,
          so here's mine. By the way, first tab.

Piano intro, bass tacet
Guitar kicks in, bass goes
Verse:
G|---------------15------15--------------------------|  \
D|--10-10-10-10-----88-8----88-10-11-----------------|  |
A|-----------------------------------8-8-8-8---------|  |
E|---------------------------------------------------|  |
						        | 
G|---------------------------------------------------|  |
D|--10------10--------------------3-------3----------|  |x3 
A|---------------------------------------------------|  |
E|-----88-8----88-10-11--6-6-6-6----1-1-1---1-1-3-4--|  |
						        |
G|---------------------------------------------------|  |
D|-----------------------5-5---5-6-------------------|  |
A|-3-3-3-3--3-6-6-3-3--3-----6-----------------------|  |
E|---------------------------------------------------|  /
[ Tab from: http://www.guitartabs.cc/tabs/m/muse/bliss_btab_ver_3.html ]
Chorus:
G|---------------------------------------------------|  \
D|-10--10--10--10--7--7--7--7------------------------|  |
A|-----------------------------10--10--10--10--------|  |
E|---------------------------------------------------|  |
							|x1
G|---------------------------------------------------|  |
D|---------------------------------------------------|  |
A|-3--3--3--3--0--0--0--0----------------------------|  |
E|-------------------------0--0--0--0----------------|  /


G|---------------------------------------------------|
D|---------------------------------------------------|
A|---------------------------------------------------|
E|-1~----------1-1-1-1-1-1-1-1-----------------------|

Then Verse x3
     Chorus x2

and then again:
G|---------------------------------------------------|
D|---------------------------------------------------|
A|---------------------------------------------------|
E|-1~----------1-1-1-1-1-1-1-1-----------------------|

Then bass tacet for a while and when Matt starts playing octaves, Chris plays again
verse x1 and then again chorus x2; Then in the ending bass tacet, or if you want to
play the live version go on with Verse while the guitar plays the solo.
Hope you enjoy. MUSE lead my life.
Comments