Muse - Bliss Chords & Tabs

 

Bliss Chords & Tabs

Muse Chords & Tabs

Version: 2 Type: Bass Tab 0 ratings
1 star 2 stars 3 stars 4 stars 5 stars
comments

Bliss Bass Tab

  Into/verse
 G----------------------------------------------------------------]
 D-10-10-10-1010-8-8-88-9-10--------10----------------------------]
 A-------------------------8-8-8-88-------------------------------]
 E-----------------------------------8-8-8-8-6-6-6-7-8--1-1-1-1-1-]
 
 G-------------------------]     Repeat this section. Its 99% corect
 D---------------------8910]     Use a fuzz distortion on bass.
 A--------------8-9-10-----]     This tab is very accurate and cant go
 E-8-8-8-8-11-88-----------]     wrong once you ve learnt it.
   Chorus
 G----------------------------------------------------------------
 D----------------------------------------------------------------
 A-15-15-15-15--12-12-12-12--10-10-10-10--------------------------
 E----------------------------------------8-8-8-8--5-5-5-5-0-0-0-0
[ Tab from: http://www.guitartabs.cc/tabs/m/muse/bliss_btab_ver_2.html ]
Comments