Muse - Blackout Chords & Tabs

 

Blackout Chords & Tabs

Muse Chords & Tabs

Version: 3 Type: Tab 0 ratings
1 star 2 stars 3 stars 4 stars 5 stars
comments

Blackout Tab

-------------------------------------------------------------------------------
			     Blackout - Muse
-------------------------------------------------------------------------------
Tabbed by: rowej

Tuning: EADGBe 

In 6/8. Played slow, deliberate.

Intro (strings only)

e|------------------------------------------------|
B|------3-----------3-----------3-----------3-----|
G|----3---3-------3---3-------3---3-------3---3---|
D|--3-------3---3-------3---3-------3---3-------3-|
A|1-----------1-----------1-----------1-----------|
E|------------------------------------------------|

Intro (add other instruments)

e|------------------------------------------------|
B|------3-----------3-----------4-----------2-----|
G|----3---3-------2---2-------3---3-------2---2---|
D|--3-------3---3--------3--5-------5---3-------3-|
A|1-----------0-----------------------------------|
E|------------------------3-----------1-----------|

Verse 1
[ Tab from: http://www.guitartabs.cc/tabs/m/muse/blackout_tab_ver_3.html ]
e|------------------------------------------------|
B|------3-----------3-----------4-----------2-----|
G|----3---3-------2---2-------3---3-------2---2---|
D|--3-------3---3-------3---5-------5---3-------3-|
A|1-----------0-----------------------------------|
E|------------------------3-----------1-----------|

  Don't ----------------- kid yourself ------  And


e|------------------------------------------1-----|
B|------3-----------3-----------4---------1---1---|
G|----3---3-------2---2-------3---3-----2-------2-|
D|--3-------3---3-------3---5-------5-------------|
A|1-----------0-----------------------------------|
E|------------------------3-----------1-----------|

  Don't ----------------- fool yourself ------


e|------3-----------3-----------3-----------3-----|
B|----3---3-------3---3-------4---4-------2---2---|
G|--3-------3---3-------3---3-------3---3-------3-|
D|------------------------1-----------1-----------|
A|3-----------1-----------------------------------|
E|------------------------------------------------|

        This  love's too  good to last  I'm too old


e|------2-----------3-----------2-----------------|
B|----3---3-------2---2-------3---3---------3-----|
G|--2-------2---3-------3---2-------2-----2---2---|
D|0-----------1-----------0-------------4-------4-|
A|------------------------------------3-----------|
E|------------------------------------------------|

  to dream -------------------------
Comments