Muse - Ashamed Chords & Tabs

 

Ashamed Chords & Tabs

Muse Chords & Tabs

Version: 4 Type: Bass Tab 0 ratings
1 star 2 stars 3 stars 4 stars 5 stars
comments

Ashamed Bass Tab

   
Band: Muse
Song: Ashamed
Album: Hullabaloo CD1 (2002)
Bassist: Chris Wolstenholme
Tuning: Standard

Optional: Intro isn't on bass but you can play it like this:

G|-----------------------------------------------|
D|-----4------4---4------4---4------4---4------4-|
A|-------2-22-------2-22-------2-22-------2-22---|
E|14\2----------2----------2----------2----------|

No bass till 0:20. Main riff:

G|-------------|
D|-------------|
A|--0-2-33-2-0-|
E|2------------| x8 

G|----------------|----------------|----------------|-------------|
D|----------------|----------------|----------------|-------------|
A|----------------|----------------|----------------|--0-2-33-2-0-|
E|2-2-0-22-02-02-0|2-2-0-22-02-02-0|2-2-0-22-02-02-0|2------------| x3

Verse:

G|----------------|----------------|-------------|-------------|
D|----------------|----------------|-------------|-------------|
A|----------------|----------------|--0-2-33-2-0-|--0-2-33-2-0-|
E|2-2-0-22-02-02-0|2-2-0-22-02-02-0|2------------|2------------| x2

Chorus:

G|-------------|-------------|-------------|--------------|
D|---------2-4-|---------2-4-|---------2-4-|------42-42---|
A|--0-2-33-----|--0-2-33-----|--0-2-33-----|--0-2-------32|
E|2------------|2------------|2------------|2-------------|

G|-------------|-------------|-------------|--------------|
D|---------2-4-|---------2-4-|---------2-4-|--------------|
A|--0-2-33-----|--0-2-33-----|--0-2-33-----|----2~--------|
E|2------------|2------------|2------------|2-2-----------|

Riff:

G|-------------|
D|-------------|
A|--0-2-33-2-0-|
E|2------------| x8 
[ Tab from: http://www.guitartabs.cc/tabs/m/muse/ashamed_btab_ver_4.html ]
G|----------------|----------------|----------------|-------------|
D|----------------|----------------|----------------|-------------|
A|----------------|----------------|----------------|--0-2-33-2-0-|
E|2-2-0-22-02-02-0|2-2-0-22-02-02-0|2-2-0-22-02-02-0|2------------|

Verse:

G|----------------|----------------|-------------|-------------|
D|----------------|----------------|-------------|-------------|
A|----------------|----------------|--0-2-33-2-0-|--0-2-33-2-0-|
E|2-2-0-22-02-02-0|2-2-0-22-02-02-0|2------------|2------------| x2

Chorus:

G|-------------|-------------|-------------|--------------|
D|---------2-4-|---------2-4-|---------2-4-|------42-42---|
A|--0-2-33-----|--0-2-33-----|--0-2-33-----|--0-2-------32|
E|2------------|2------------|2------------|2-------------|

G|-------------|-------------|-------------|--------------|
D|---------2-4-|---------2-4-|---------2-4-|--------------|
A|--0-2-33-----|--0-2-33-----|--0-2-33-----|----2~--------|
E|2------------|2------------|2------------|2-2-----------|

Riff:

G|-------------|
D|-------------|
A|--0-2-33-2-0-|
E|2------------| x8 

Bridge:

G|---------------------------------------------|
D|---------------------------------------------|
A|---------------------------------------------|
E|14\2--14\2--14\2--14\2/14\2--14\2--14\2--14--|

Outro:

G|---------------|    |----------------|     |------------|
D|---------------|    |----------------|     |------------|
A|--------2------|    |--------0-------|     |--------2---|
E|2-0-1-2---2-0-1| x8 |2-0-1-2---2-0-1-| x15 |2-0-1-2---1-|

/  slide up
\  slide down
h  hammer-on
p  pull-off
~  let ring
Comments