Muse - Ashamed Chords & Tabs

 

Ashamed Chords & Tabs

Muse Chords & Tabs

Version: 3 Type: Bass Tab 0 ratings
1 star 2 stars 3 stars 4 stars 5 stars
comments

Ashamed Bass Tab

   
not sure this is right but hey, it was fun!

----------------------------------------------------------------------------
			     ASHAMED - Muse
----------------------------------------------------------------------------

Tabbed By : Bass D

Tuning: Standard

Play nothing till 0:20

G|------------|------------|------------|------------|------------|
D|------------|------------|------------|------------|------------|
A|--2-4-3-2-0-|--2-4-3-2-0-|--2-4-3-2-0-|--2-4-3-2-0-|--2-4-3-2-0-|
E|2-----------|2-----------|2-----------|2-----------|2-----------|

G|------------|------------|------------|--------------------|
D|------------|------------|------------|--------------------|
A|--2-4-3-2-0-|--2-4-3-2-0-|--2-4-3-2-0-|--------------------|
E|2-----------|2-----------|2-----------|2--2-2-2--2--2--2-2-|

G|--------------------|--------------------|--------------------|
D|--------------------|--------------------|--------------------|
A|--------------------|--------------------|--------------------|
E|2--2-2-2--2--2--2-2-|2--2-2-2--2--2--2-2-|2--2-2-2--2--2--2-2-|

G|------------|--------------------|--------------------|
D|------------|--------------------|--------------------|
A|--2-4-3-2-0-|--------------------|--------------------|
E|2-----------|2--2-2-2--2--2--2-2-|2--2-2-2--2--2--2-2-|

G|--------------------|--------------------|--------------------|
D|--------------------|--------------------|--------------------|
A|--------------------|--------------------|--------------------|
E|2--2-2-2--2--2--2-2-|2--2-2-2--2--2--2-2-|2--2-2-2--2--2--2-2-|

G|--------------------|--------------------|--------------------|
D|--------------------|--------------------|--------------------|
A|--------------------|--------------------|--------------------|
E|2--2-2-2--2--2--2-2-|2--2-2-2--2--2--2-2-|2--2-2-2--2--2--2-2-|

G|--------------------|
D|--------------------|  You should be at 1:03 at this point
A|--------------------|
E|2--2-2-2--2--2--2-2-|


G|------------|------------|--------------------|--------------------|
D|------------|------------|--------------------|--------------------|
A|--2-4-3-2-0-|--2-4-3-2-0-|--------------------|--------------------|
E|2-----------|2-----------|2--2-2-2--2--2--2-2-|2--2-2-2--2--2--2-2-|

G|------------|------------|
D|------------|------------|
A|--2-4-3-2-0-|--2-4-3-2-0-|
E|2-----------|2-----------|
             
             x7
G|------------|-----------|-----------|
D|------------|-----------|-----------|
A|--2-4-5-6-6-|-----------|-----------|
E|2-----------|2--2-------|-----------|
[ Tab from: http://www.guitartabs.cc/tabs/m/muse/ashamed_btab_ver_3.html ]
             x8
G|------------|
D|------------|You should be at 1:48 at this point
A|--2-4-3-2-0-|
E|2-----------|

G|--------------------|--------------------|--------------------|
D|--------------------|--------------------|--------------------|
A|--------------------|--------------------|--------------------|
E|2--2-2-2--2--2--2-2-|2--2-2-2--2--2--2-2-|2--2-2-2--2--2--2-2-|

G|------------|--------------------|--------------------|
D|------------|--------------------|--------------------|You should be at
A|--2-4-3-2-0-|--------------------|--------------------|2:00 at this point
E|2-----------|2--2-2-2--2--2--2-2-|2--2-2-2--2--2--2-2-|

             x2
G|------------|
D|------------|
A|--2-4-3-2-0-|
E|2-----------|

                     x2
G|--------------------|
D|--------------------|
A|--------------------|
E|2--2-2-2--2--2--2-2-|

             x2
G|------------|
D|------------|
A|--2-4-3-2-0-|
E|2-----------|

             x7
G|------------|-----------|-----------|
D|------------|-----------|-----------|
A|--2-4-5-6-6-|-----------|-----------|
E|2-----------|2--2-------|-----------|

G|------------|------------|------------|------------|------------|
D|------------|------------|------------|------------|------------|
A|--2-4-3-2-0-|--2-4-3-2-0-|--2-4-3-2-0-|--2-4-3-2-0-|--2-4-3-2-0-|
E|2-----------|2-----------|2-----------|2-----------|2-----------|

G|------------|------------|------------|
D|------------|------------|------------|You should be at 2:45 at this point
A|--2-4-3-2-0-|--2-4-3-2-0-|--2-4-3-2-0-|
E|2-----------|2-----------|2-----------|

              x4
G|-------------|
D|-------------|
A|-------------|
E|4\2-3--4\2-3-|

              x3
G|-------------|
D|-------------|
A|-------------|
E|4/-----------|

                                  x8 
G|-------------|  G|---------------|
D|-------------|  D|---------------|
A|-------------|  A|---------------|
E|-------------|  E|4-3-2-0-4-3-2--|

                     x5                       x5                   x5
G|--------------------|  G|--------------------|  G|----------------|
D|--------------------|  D|--------------------|  D|----------------|
A|--------------------|  A|--------------------|  A|----------------|
E|2-0--2-0--2-0--2-0--|  E|3-0--3-0--3-0--3-0--|  E|4-3-2-0-4-3-2-0-|

G|---------------|
D|---------------| There You Are!   At the end!  Hope you enjoy it!
A|---------------|
E|4-3-2-0-4-3----|


| /  slide up
| \  slide down
| h  hammer-on
| p  pull-off
| ~  vibrato
| +  harmonic
| x  Mute note
============================================================================
Comments