Muse - Ashamed Chords & Tabs

 

Ashamed Chords & Tabs

Muse Chords & Tabs

Version: 1 Type: Bass Tab 0 ratings
1 star 2 stars 3 stars 4 stars 5 stars
comments

Ashamed Bass Tab

                   Ashamed, By Muse. (Sunburn single)
Tabbed by FeRg, the everlasting nothing. :) music@iferguson48.freeserve.co.uk bye
any timings, listen yourself. It's not that hard to learn, just slightly difficult 
to play without cocking up. good song, listen for any rogue notes. norm. tuning. 
:) have fun.


                    intro                                               
G---||------------------------------------------------------------------
D---||------------------------------------------------------------------
A---||-----2--2--3-----2--2--3-----2--2--3-----2--2--3------------------
E---||--2-----------2-----------2-----------2---------------------------
                                                                        

         chorus/afterintro     8x                                       
G---||-------------------------||---------------------------------------
D---||*-----------------------*||---------------------------------------
A---||*-----0--2--2--3--2--0--*||---------------------------------------
E---||---2---------------------||---------------------------------------
                                                                        

                                                                        
G-----------------------------------------------------------------------
D-----------------------------------------------------------------------
A-----------------------------------------------------------------------
E-----------------------------------------------------------------------
                                                                        

         note: play this, then the next bar,     2x                     
G---||-------------------------------------------||---------------------
D---||*-----------------------------------------*||---------------------
A---||*-----------------------------------------*||---------------------
E---||---2--2--0--2--2--0--2--0--2--0--2--0--2---||---------------------
                                                                        

    then this, then back. listen to it.                                 
G---------------------------------------||------------------------------
D---------------------------------------||------------------------------
A------0--2--2--3--2--0-----------------||------------------------------
E---2-----------------------------------||------------------------------
                                                                        

                                                                        
G-----------------------------------------------------------------------
D-----------------------------------------------------------------------
A-----------------------------------------------------------------------
E-----------------------------------------------------------------------
                                                                        
[ Tab from: http://www.guitartabs.cc/tabs/m/muse/ashamed_btab.html ]
    nb: at end of 4th repeat, play ne8x bar                             
G---||-------------------------------||---------------------------------
D---||*--------------------2--2--4--*||---------------------------------
A---||*-----0--2--2--3--3-----------*||---------------------------------
E---||---0---------------------------||---------------------------------
                                                                        

    and 8th that is. little thingy makes sound good. :)                 
G---------------------||--------------------------------------||--------
D---4-----------------||--------------------------------------||--------
A------2--0--3--2-----||--------------------------------------||--------
E------------------2--||--------------------------------------||--------
                                                                        

                                                                        
G---------------------------------------------------------||------------
D---------------------------------------------------------||------------
A---------------------------------------------------------||------------
E---------------------------------------------------------||------------
                                                                        

    bridge thingy                                                       
G-----------------------------------------------------------------------
D-----------------------------------------------------------------------
A---9\0--------9\0--------9\0--------9\0--------------------------------
E-----------------------------------------------------------------------
                                                                        

                                  4x                                    
G---||----------------------------||------------------------------------
D---||*--------------9-----------*||------------------------------------
A---||*--9--7--8--9-----7--8--9--*||------------------------------------
E---||----------------------------||------------------------------------
                                                                        



========================================================================
==                       TABLATURE EXPLANATION                        ==
========================================================================

----------                ----------                ----t---
----5h8--- Hammeron       ----(8)--- Ghost          ----6--- Tap
----------                ---------- Note           --------
----5p8--- Pulloff        ----------                --------

----------                ----------                -----p--
----5/8--- Slide Up       -----x---- Dead           -----7-- Pop
----------                ---------- Note           --s-----
----5\8--- Slide Down     ----------                --5----- Slap 

----------                ||------|| Repeat         --------
----5~~~-- Vibrato        ||*----*||                ---5^--- Bend
----------                ||*----*||                --------
----------                ||------||                --------

----------                ----------                --------
-4:------- Time           ----------                --------
-4:------- Signature      ----------                --------
----------                ----------                --------

========================================================================
==            Created with a demo version of BUCKET O' TAB            ==
==              tablature creation software for Windows               ==
==                  For more info email gse@his.com                   ==
========================================================================


Comments