Muse - Apocalypse Please Chords & Tabs

 

Apocalypse Please Chords & Tabs

Muse Chords & Tabs

Version: 2 Type: Bass Tab 0 ratings
1 star 2 stars 3 stars 4 stars 5 stars
comments

Apocalypse Please Bass Tab

   
Song - Apocalypse Please
Band - Muse
Tabber - Zeidrich

Piano intro (bass enters just after "and put us"):

G|---------------------------|
D|---------------------------|
A|---------------------------|
E|-2-2--2--2--2-9-9--9--9--9-|

For a few times, then onto (at "this is the end"):

G|------------------------------------------------------------------|
D|------------------------------------------------------------------|
A|------------------------------------------------------------------|
E|-2222222222222222222222222222222244444444444444445555555555555555-

G|------------------------------------------------------------------|
D|------------------------------------------------------------------|
A|------------------------------------------------------------------|
E|-2222222222222222222222222222222299999999999999999999999999999999-
[ Tab from: http://www.guitartabs.cc/tabs/m/muse/apocalypse_please_btab_ver_2.html ]
Then go back into intro bit, and then back into the Chorus bit, then onto this bit
when theres kinda a weird synth effect: *note 1111 is 11-11*

G|---66--66--66--66--66--66--66--66--1111--1111--1111--1111--99--99--99--99-|
D|--------------------------------------------------------------------------|
A|-44--44--44--44--44--44--44--44--99----99----99----99----77--77--77--77---| x2
E|--------------------------------------------------------------------------|

G|---66--66--66--66--77--77--77--77-|
D|----------------------------------|
A|-44--44--44--44--55--55--55--55---|
E|----------------------------------|

Then back to the beginning and do it all again, the end goes something like this:
        *let each note ring out for a bar*

G|------------------------------------|
D|------------------------------------|
A|-4---4---4---4-------5---2---4---9--|
E|-----------------2------------------|
Comments