Muse - Animals Chords & Tabs

 

Animals Chords & Tabs

Muse Chords & Tabs

Version: 1 Type: Bass Tab 1 rating
1 star 2 stars 3 stars 4 stars 5 stars
comments

Animals Bass Tab

Artist: Muse
Song: Animals
Album: The 2nd Law
Tuning: D#AD#G

Legend:
s=slide

Intro [Uses clean]:
1|----------|
2|----------|
3|-6--------|
4|----------| x4

Verse [Uses clean]:
1|-8888-8s10s8---6666-6s9s6-----------------67-|
2|--------------------------5555-55---33333----|
3|---------------------------------------------|
4|---------------------------------------------| x6



Chorus:
1|------------------------------------------------------------------------|
2|-5555-55--4444-44--3333-33--2222-22-------------------------------------|
3|-------------------------------------4444-44--2222-22--0000-00----------|
4|----------------------------------------------------------------5555-55-|

1|------------------------------------------------------------------------------------------|
2|-3333-33--2222-22--0000-00----------------------------------------------------------------|
3|----------------------------4444-44--2222-22-----------1111-11--1111-11--1111-11--1111-11-|
4|----------------------------------------------5555-55-------------------------------------| x1


Verse:

1|-8888-8s10s8---6666-6s9s6-----------------67-|
2|--------------------------5555-55---33333----|
3|---------------------------------------------|
4|---------------------------------------------| x6



Chorus:
1|------------------------------------------------------------------------|
2|-5555-55--4444-44--3333-33--2222-22-------------------------------------|
3|-------------------------------------4444-44--2222-22--0000-00----------|
4|----------------------------------------------------------------5555-55-|
[ Tab from: http://www.guitartabs.cc/tabs/m/muse/animals_btab.html ]
1|------------------------------------------------------------------------------------------|
2|-3333-33--2222-22--0000-00----------------------------------------------------------------|
3|----------------------------4444-44--2222-22-----------1111-11--1111-11--1111-11--1111-11-|
4|----------------------------------------------5555-55-------------------------------------| x1





Flamenco-ish break [Uses distortion]:
1|------------------|
2|-000-12-00-10-0-8-|
3|------------------|
4|------------------| x4


Guitar solo part: [Uses clean]:
1|-8888-8s10s8---6666-6s9s6-----------------67--|
2|--------------------------5555-55---33333---5-|
3|----------------------------------------------|
4|----------------------------------------------| x6



Chorus [Uses clean]:
1|------------------------------------------------------------------------|
2|-5555-55--4444-44--3333-33--2222-22-------------------------------------|
3|-------------------------------------4444-44--2222-22--0000-00----------|
4|----------------------------------------------------------------5555-55-|

1|------------------------------------------------------------------------------------------|
2|-3333-33--2222-22--0000-00----------------------------------------------------------------|
3|----------------------------4444-44--2222-22-----------1111-11--1111-11--1111-11--1111-11-|
4|----------------------------------------------5555-55-------------------------------------| x1



Final part [Uses distortion]:
1|------------------|
2|-000-12-00-10-0-8-|
3|------------------|
4|------------------| x4

1|------------------------------------|
2|------------------------------------|
3|------------------------------------|
4|-000-12-00-10-0-8--000-12-00-10-0-8-| x6


If you have any questions, or corrections feel free to e-mail me at matic.zivkovic@gmail.com

Enjoy your learning, cheers! :)
Comments