Muse - Agitated Chords & Tabs

 

Agitated Chords & Tabs

Muse Chords & Tabs

Version: 2 Type: Tab 0 ratings
1 star 2 stars 3 stars 4 stars 5 stars
comments

Agitated Tab

   
-----------------------------------------------------------------------------
			     Agitated - MUSE
-----------------------------------------------------------------------------

Tabbed by: Leo C

Tuning: Drop D

INTRO:

e|-------------------------------------|
B|-------------------------------------|
G|-------------------------------------|
D|-44333333-44333333-44333333-44333333-|
A|-55333333-55333333-55333333-55333333-|
D|-00333333-00333333-00333333-00333333-|
     ******   ******   ******   ******

* = harmonics. they should be played between the third and fourth frets.

e|-----------------------------------------------------|
B|-----------------------------------------------------|
G|-----------------------------------------------------|
D|-44-----------44-----------44-----------44-----------|
A|-55-----------55-----------55-----------55-----------|
D|-00-5-6-777-0-00-5-6-777-0-00-5-6-777-0-00-5-6-777-0-|

e|-----------------------------------------------------|
B|-----------------------------------------------------|
G|-----------------------------------------------------|
D|-44-----------44-----------44-----------44-----------|
A|-55-----------55-----------55-----------55-----------|
D|-00-5-6-777-0-00-5-6-777-0-00-5-6-777-0-00-5-6-777-0-|

e|-----------------------------------------------------|
B|-----------------------------------------------------|
G|-----------------------------------------------------|
D|-44-----------44-----------44-----------44-----------|
A|-55-----------55-----------55-----------55-----------|
D|-00-5-6-777-0-00-5-6-777-0-00-5-6-777-0-00-5-6-777-0-|

VERSE:

e|-------------------------------------|
B|-------------------------------------|
G|-------------------------------------|
D|-44333333-44333333-44333333-44333333-|
A|-55333333-55333333-55333333-55333333-|
D|-00333333-00333333-00333333-00333333-|
     ******   ******   ******   ******

e|-----------------------------------------------------|
B|-----------------------------------------------------|
G|-----------------------------------------------------|
D|-44-----------44-----------44-----------44-----------|
A|-55-----------55-----------55-----------55-----------|
D|-00-5-6-777-0-00-5-6-777-0-00-5-6-777-0-00-5-6-777-0-|

e|-----------------------------------------------------|
B|-----------------------------------------------------|
G|-----------------------------------------------------|
D|-44-----------44-----------44-----------44-----------|
A|-55-----------55-----------55-----------55-----------|
D|-00-5-6-7777--00-5-6-7777--00-5-6-7777--00-5-6-7777--|

CHORUS:
[ Tab from: http://www.guitartabs.cc/tabs/m/muse/agitated_tab_ver_2.html ]
e|------------------------------------------------------------------|
B|------------------------------------------------------------------|
G|------------------------------------------------------------------|
D|-5555555544444444333333333333333355555555444444443333333333333333-|
A|-5555555544444444333333333333333355555555444444443333333333333333-|
D|-5555555544444444333333333333333355555555444444443333333333333333-|

Repeat Intro

Repeat Verse

Repeat Chorus

BREAK:

e|------------------------------------------------------------------|
B|------------------------------------------------------------------|
G|------------------------------------------------------------------|
D|-4444444444444444444444444444444444444444444444444444444444444444-|
A|-5555555555555555555555555555555555555555555555555555555555555555-|
D|-0000000000000000000000000000000000000000000000000000000000000000-|

NOTE: The break I couldn't really tab out very well. You can play this as
above, or you can also play the harmonics repeatedly between the third and fourth frets. 
a lot to be done with this part of the break.

OUTRO:

e|-------------------------------------------------------------|
B|-------------------------------------------------------------|
G|-------------------------------------------------------------|
D|-44-------------44-------------44-------------44-------------|
A|-55-------------55-------------55-------------55-------------|
D|-00-44-55-66-77-00-44-55-66-77-00-44-55-66-77-00-44-55-66-77-|

e|-------------------------------------------------------------|
B|-------------------------------------------------------------|
G|-------------------------------------------------------------|
D|-44-------------44-------------44-------------44-------------|
A|-55-------------55-------------55-------------55-------------|
D|-00-44-55-66-77-00-44-55-66-77-00-44-55-66-77-00-44-55-66-77-|

e|-------------------------------------------------------------|
B|-------------------------------------------------------------|
G|-------------------------------------------------------------|
D|-44-------------44-------------44-------------44-------------|
A|-55-------------55-------------55-------------55-------------|
D|-00-44-55-66-77-00-44-55-66-77-00-44-55-66-77-00-44-55-66-77-|

End on:

e|---|
B|---|
G|---|
D|-4-|
A|-5-|
D|-0-|

=============================================================================

I made this tab because I really wanted to learn the song and there isn't a good tab 
up. Amazingly, this only took about 20 minutes to tab out fully. And yes, I did check each 
with the actual song, so that it fits. It might not be the official way to play it...but it's my way.

Enjoy.
Comments