Muse - Agitated Acoustic Chords & Tabs

 

Agitated Acoustic Chords & Tabs

Muse Chords & Tabs

Version: 1 Type: Tab 0 ratings
1 star 2 stars 3 stars 4 stars 5 stars
comments

Agitated Acoustic Tab

   
Band - Muse
Song - Agitated (acoustic) 

e|-----------------------------------------------------------------|
B|-6-6-x-x-x-x-x-x-6-6-x-x-x-x-x-x-6-6-x-x-x-x-x-x-6-6-x-x-x-x-x-x-|
G|-5-5-x-x-x-x-x-x-5-5-x-x-x-x-x-x-5-5-x-x-x-x-x-x-5-5-x-x-x-x-x-x-|
d|-4-4-x-x-x-x-x-x-4-4-x-x-x-x-x-x-4-4-x-x-x-x-x-x-4-4-x-x-x-x-x-x-|
A|-5-5-x-x-x-x-x-x-5-5-x-x-x-x-x-x-5-5-x-x-x-x-x-x-5-5-x-x-x-x-x-x-|
D|-----------------------------------------------------------------|

e|-----------------------------------------------------------------|
B|-6-6-------------6-6-------------6-6-------------6-6-------------|
G|-5-5-------------5-5-------------5-5-------------5-5-------------|repeat  
d|-4-4-------------4-4-------------4-4-------------4-4-------------|into
A|-5-5-------------5-5-------------5-5-------------5-5-------------|verse
D|-----4-5-6-7-7-0-----4-5-6-7-7-0-----4-5-6-7-7-0-----4-5-6-7-7-0-|
[ Tab from: http://www.guitartabs.cc/tabs/m/muse/agitated_acoustic_tab.html ]
Verse
e|-----------------------------------------------------------------|
B|-----------------------------------------------------------------|
G|-----------------------------------------------------------------|
d|-0-0-4-5-6-7-7-7-0-0-4-5-6-7-7-7-0-0-4-5-6-7-7-7-0-0-4-5-6-7-7-7-|
A|-0-0-4-5-6-7-7-7-0-0-4-5-6-7-7-7-0-0-4-5-6-7-7-7-0-0-4-5-6-7-7-7-|
d|-0-0-4-5-6-7-7-7-0-0-4-5-6-7-7-7-0-0-4-5-6-7-7-7-0-0-4-5-6-7-7-7-|

Chorus

e|-----------------------------------------------------------------|
B|-----------------------------------------------------------------| 
G|-2-2-2-2-2-2-2-2-2-2-2-2-2-2-2-2-2-2-2-2-2-2-2-2-2-2-2-2-2-2-2-2-| 
d|-0-0-0-0-0-0-0-0-0-0-0-0-0-0-0-0-0-0-0-0-0-0-0-0-0-0-0-0-0-0-0-0-| 
A|-0-0-0-0-4-4-4-4-----------------0-0-0-0-4-4-4-4-----------------|
D|-0-0-0-0---------3-3-3-3-3-3-3-3-0-0-0-0---------3-3-3-3-3-3-3-3-|

Verse
Chorus


Outro
e|-------------------------------------------------------------------------|
B|-6-----------------6-----------------6-----------------6-----------------|
G|-5-----------------5-----------------5-----------------5-----------------|
d|-4-----------------4-----------------4-----------------4-----------------|
A|-5-----------------5-----------------5-----------------5-----------------|
D|---0-4-0-5-0-6-0-7---0-4-0-5-0-6-0-7---0-4-0-5-0-6-0-7---0-4-0-5-0-6-0-7-|
Comments